Song name
# A B C D E F G H I J K L M N O P Q R S T U V W X Y Z

The Middle East - Blood tab

Blood - The Middle East
tabbed by sanec17

Okay, well this is a little rough. It's my first tab so have mercy. This is the basic
tab to the song. Listen to the song and experiment a little bit with the tab and you
should be able to figure it out. Sometimes they repeat the chorus a couple times, 
sometimes they repeat it three or so.

View the video of this tab at:          http://youtu.be/O_mFvw7rVOg

Riff A
e-----------------------------------------------------------------------------------|
B-----3---------3----------3---------3----------1---------1----------8---------8----|
G-----0---------0----------0---------0----------0---------0----------0---------0----|
D----------0--------------------0--------------------0--------------------9---------|
A--3----------------------------------------0---------------------7-----------------|
E---------------------3-------------------------------------------------------------|

Riff B
e------------------------------------------------------------------------------------|
B------5--------5----------5----------5----------5----------5----------5----------5--|
G------0--------0----------0----------0----------0----------0----------0----------0--|
D-----------0--------------------0---------------------0---------------------0-------|
A--3------------------3---------------------3----------------------3-----------------|
E------------------------------------------------------------------------------------|

Riff C
e------------------------------------------------------------------------------------|
B-----3---------3----------3----------3----------3----------3----------3----------3--|
G-----0---------0----------0----------0----------0----------0----------0----------0--|
D----------0---------------------0---------------------0---------------------0-------|
A--------------------2--------------------------------------------2------------------|
E--3-------------------------------------------3-------------------------------------|

Riff D
e------------------------------------------------------------------------------------|
B-----3---------3----------3----------3----------3----------3----------3----------3--|
G-----0---------0----------0----------0----------0----------0----------0----------0--|
D----------2---------------------2---------------------2---------------------2-------|
A--3------------------3---------------------3---------------------3------------------|
E------------------------------------------------------------------------------------|

Riff E
e------------------------------------------------------------------------------------|
B-----3---------3----------3----------3----------3----------3----------3----------3--|
G-----0---------0----------0----------0----------0----------0----------0----------0--|
D----------0---------------------0---------------------2---------------------2-------|
A--2------------------2---------------------3----------------------3-----------------|
E--0------------------0--------------------------------------------------------------|

Intro
Riff A  Riff B  Riff A  Riff B

Verse
Riff A  Riff B  Riff A  Riff B
Riff A  Riff B  Riff A  Riff B
Riff A  Riff A  Riff B
Riff C  Riff D  Riff C

Chorus
Riff E  Riff C
Riff E  Riff C
(Riff E  Riff C)
Riff E

Final Chords

022033
032033
320033
Tap to rate this tab
# A B C D E F G H I J K L M N O P Q R S T U V W X Y Z