Song name
# A B C D E F G H I J K L M N O P Q R S T U V W X Y Z

The Midnight Youth - A New Day tab

The Midnight Youth - Intro to A New Day

A Great Kiwi Band. The Midnight Youth came second at the Smokefree Rockquest and this is 
latest single, A New Day.

www.midnightyouth.com

Enjoi :)

E||------13--11-13-------------|-----11--9-11-------------|
B||--11------------------------|--7-----------------------|
G||----------------------------|--------------------------|
D||----------------------------|--------------------------|
A||----------------------------|--------------------------|
E||----------------------------|--------------------------|

------13--11-13-------------|--------------------------16-16-16-16-13----|
--11------------------------|--13-13-13-13-13-13-13-13-------------------|
----------------------------|--------------------------------------------|
----------------------------|--------------------------------------------|
----------------------------|--------------------------------------------|
----------------------------|--------------------------------------------|


------13--11-13------13--9-----|-----11--9-11------11--9-----|
--11---------------------------|--7--------------------------|
-------------------------------|-----------------------------|
-------------------------------|-----------------------------|
-------------------------------|-----------------------------|
-------------------------------|-----------------------------|

------13--11-13------13--9-----|-----11--9-11------11--9-----|
--11---------------------------|--7--------------------------|
-------------------------------|-----------------------------|
-------------------------------|-----------------------------|
-------------------------------|-----------------------------|
-------------------------------|-----------------------------|

------13--11-13------13--9-----|-----11--9-11------11--9-----|
--11---------------------------|--7--------------------------|
-------------------------------|-----------------------------|
-------------------------------|-----------------------------|
-------------------------------|-----------------------------|
-------------------------------|-----------------------------|

------13--11-13------13--9-----|-----11--9-11------11--9-----|-----------||
--11---------------------------|--7--------------------------|--(10)\----||
-------------------------------|-----------------------------|-----------||
-------------------------------|-----------------------------|-----------||
-------------------------------|-----------------------------|-----------||
-------------------------------|-----------------------------|-----------||
Tap to rate this tab
 
# A B C D E F G H I J K L M N O P Q R S T U V W X Y Z