Song name
# A B C D E F G H I J K L M N O P Q R S T U V W X Y Z

The Mighty Boosh - Call Of The Yeti tab

www.themightyboosh.com

Nobody had a boosh song up here so I thought i had to try and make and effort

----------------------------------------------------------------------|
----------------------------------------------------------------------|
----------------------------------------------------------------------|
---------------2----1---2---1-----------------------2--2--1-----------|
--0--0--0--0--------------------4---2---0--0--0--0--------------------|
----------------------------------------------------------------------|
Look into our eyes, everything is good,

-----------------------------------------------------------------------------|
-----------------------------------------------------------------------------|
-----------------------------------------------------------------------------|
--------------3----2---3---2---0-------------------------------2---1---2---4-|
-0--0--0--0------------------------3-----------------------------------------|
----------------------------------------4----4----4----4----1----------------|
Look into our eyes everything is good, you don't need your friends or family


hahaha. soz It's only a rough attempt and theres a key change XD
xx

p.s - will edit better later
Tap to rate this tab
# A B C D E F G H I J K L M N O P Q R S T U V W X Y Z