Song name
# A B C D E F G H I J K L M N O P Q R S T U V W X Y Z

The Mighty Boosh - Bollos Happy Song tab

-------------------------------------------------------------------------------
		 Bollo's Happy Song-The Mighty Boosh
-------------------------------------------------------------------------------
Tabbed by:Matt Lane
Email:mattylane@hotmail.co.uk

Nice little song from the episode bollo.


 Tuning:EADGBe

Im sure you can get the strumming pattern yourself

e|--5------------5-------------5------------5-5-5-5-----------|
B|--5----6-6-----5-----6-6-----5----6-6-----5-5-5-5-----------|
G|--6----6-6-----6-----6-6-----6----6-6-----6-6-6-6-----------|
D|--7----6-6-----7-----6-6-----7----6-6-----7-7-7-7-----------|
A|--7----5-5-----7-----5-5-----7----5-5-----7-7-7-7-----------|
E|--5------------5-------------5------------5-5-5-5-----------|

Lyrics:
The Sun Is Shining
And Your Feelin Fine
And The Birds Are Singin In The Trees

And Thats It Enjoy
Tap to rate this tab
# A B C D E F G H I J K L M N O P Q R S T U V W X Y Z