Song name
# A B C D E F G H I J K L M N O P Q R S T U V W X Y Z

The Mighty Boosh - We Are The Mutant Race tab

We are the Mutant race-Form the pisode "mutant"

this show and its songs are genius.

Drop D


Funny little Begining Part 'bout 23 seconds in

e|---------------------------------------------------------------------------|
B|---------------------------------------------------------------------------|
G|---------------------------------------------------------------------------|
D|----7----6----4--1------7----6----4--1---1---------------------------------|  X2
A|---------------------------------------4-----------------------------------|
D|---------------------------------------------------------------------------|

Right after Funny bit, about31 secs in

e|---------------------------------------------------------------------------|
B|---------------------------------------------------------------------------|
G|---------------------------------------------------------------------------|
D|---------1----4-4----1---4-------------1----4-4----1----4-6----------------|
A|----4------------------------------4---------------------------------------|
D|---------------------------------------------------------------------------|

Main chords 00:50

e|-----------------------------------------------------------------------------------|
B|-----------------------------------------------------------------------------------|
G|-----------------------------------------------------------------------------------|
D|-----------------------------------------------------------------------------------|
A|---7-7---6-6---4---1---------------------------------------------------------------|
D|---7-7---6-6---4---1---------------------------------------------------------------|

repeat XD
Tap to rate this tab
 
# A B C D E F G H I J K L M N O P Q R S T U V W X Y Z