Song name
# A B C D E F G H I J K L M N O P Q R S T U V W X Y Z

The Mighty Boosh - Electro Boy tab

hey

i did this one by ear. it wasn't that hard to do xD

believe it or not this is not even included in the song its just a random riff i made 
power chords to fit Noels singing xD basically u cud probably overlap this over the song 
it would sort of work :/

i confuse myself

E-------------------------------------------------------------|
B-------------------------------------------------------------|
G-------------------------------------------------------------|
D-------------------------------------------------------------|
A--7-7-7-7---775-5-8----7-2-7-77-5558---8857-2-2--7--8--------|
E--5-5-5-5---553-3-6----5-0-5-55-3336---6635-0-0--5--6--------|

E-------------------------------------------------------------|
B-------------------------------------------------------------|
G-------------------------------------------------------------|
D-------------------------------------------------------------|
A--8857-2-2--7--8---------------------------------------------|
E--6635-0-0--5--6---------------------------------------------|

this is a clip of where it was first heard in an episode of the mighty boosh:
http://uk.youtube.com/watch?v=u7VLPRnSX6M

anyway hope it helps u...

peace
-James
Tap to rate this tab
# A B C D E F G H I J K L M N O P Q R S T U V W X Y Z