The Mighty Boosh - Call Of The Yeti tab

=======================================
  CALL OF THE YETI - The Mighty Boosh
=======================================
Tabbed by: Todd794

Not entirely sure how correct this is but I did my best.
You might have to listen to the original to get the rhythm right.

Here are the chords:

    G      D    Asus4
e|--3------2------0------|
B|--0------3------3------|
G|--0------2------2------|
D|--0------0------2------|
A|--2-------------0------|
E|--3--------------------|


And here's the tune (played on some sort of horn?). Repeat as necessary.

e|--------------------------------------------------------------------|
B|--------------------------------------------------------------------|
G|-12--11--9-----------9------9--12--11--9------------------------9---|
D|-----------12-11~-12-----12--------------12-11~-/12-\7------12------|
A|--------------------------------------------------------------------|
E|--------------------------------------------------------------------|

~ = vibrato
/ = slide up
\ = slide down

=============================================
| If you need to contact me for any reason, |
| send an email to todd794@live.co.uk       |
=============================================
Tap to rate this tab
 
# A B C D E F G H I J K L M N O P Q R S T U V W X Y Z