Song name
# A B C D E F G H I J K L M N O P Q R S T U V W X Y Z

The Milk - Chip The Kids tab

----------------| Chip the Kids - The Milk |----------------
---------------| Tabbed by: Leftieswillrule |---------------
-------------------| February 4th, 2013 |-------------------

There was a frightening lack of tabs for this, so I decide to
try my hand at it. I used the music video and observed a live
performance to get this, so while it may not be entirely right,
nay, it will definitely not be entirely right, it's close. I
was not able to get the bridge, and I'm not 100% on the chorus.


Verse/Main Riff
e|--------------------------------|
B|---9--x-x--10-10-10-10-x-x-x----|
G|o--9--x-x--9--9--9--9--x-x-x---o|
D|o--9--x-x--11-11-11-11-x-x-x---o|
A|---9--x-x--9--9--9--9--x-x-x----|
E|--------------------------------|

Chorus
e|---2--2-x-x--4-4-4-4-----------|
B|---5--5-x-x--5-5-5-5--x-x-x----|
G|o--4--4-x-x--6-6-6-6--x-x-x---o|
D|o--2--2-x-x--6-6-6-6--x-x-x---o|
A|---2--2-x-x--4-4-4-4--x-x-x----|
E|-------------------------------|


The tab is obviously heavily flawed, but there are literally no 
other ones out there. If you want you can email me suggestions at 
leftieswillrule@gmail.com, and feel free to use what I have to
expand on the tab. Have fun!
Tap to rate this tab
# A B C D E F G H I J K L M N O P Q R S T U V W X Y Z