Song name
# A B C D E F G H I J K L M N O P Q R S T U V W X Y Z

The Mini Band - Find The Time tab

The Mini Band - Find The Time

Tabbed by Agatha2405
Tuning: Drop D

This tab is for flaying along the original tab.

****************
| h   hammer-on
| p   pull-off
| ~   vibrato
| b   Bend
****************


e|---------------------------------------------------------|
B|---------------------------------------------------------|
G|---------------------------------------------------------|
D|---------------------------------------------------------|x7
A|---------------------------------------------------------|
D|--0-0-0-0--3--0--3--0--3-5~---0-0-0-0--3--0--3--0--3--0--|

e|---------------------------------------------------|
B|---------------------------------------------------|
G|---------------------------------------------------|
D|---------------------------------------------------|
A|---------------------------------------------------|
D|--0-0-0-0--3--0--3--0--3-5~---0-0-0-0--3--0--3--5--|


e|-----------------------------------------------------------------------------------|
B|-----------------------------------------------------------------------------------|
G|-----------------------------------------------------------------------------------|
D|--7-7-7-7-7-7-7-7-3-3-3-3-3-3-3-3-----------------5-5-5-5-6-6-6-6-7-7-7-7-7-7-7-7--|x2
A|--5-5-5-5-5-5-5-5-1-1-1-1-1-1-1-1-3-3-3-3-3-3-3-3-3-3-3-3-4-4-4-4-5-5-5-5-5-5-5-5--|
D|----------------------------------3-3-3-3-3-3-3-3----------------------------------|

e|---------------------------------------------------------|
B|---------------------------------------------------------|
G|---------------------------------------------------------|
D|---------------------------------------------------------|x6
A|---------------------------------------------------------|
D|--0-0-0-0--3--0--3--0--3-5~---0-0-0-0--3--0--3--0--3--0--|

e|---------------------------------------------------|
B|---------------------------------------------------|
G|---------------------------------------------------|
D|---------------------------------------------------|
A|---------------------------------------------------|
D|--0-0-0-0--3--0--3--0--3-5~---0-0-0-0--3--0--3--5--| 
 

e|-----------------------------------------------------------------------------------|
B|-----------------------------------------------------------------------------------|
G|-----------------------------------------------------------------------------------|
D|--7-7-7-7-7-7-7-7-3-3-3-3-3-3-3-3-----------------5-5-5-5-6-6-6-6-7-7-7-7-7-7-7-7--|x2
A|--5-5-5-5-5-5-5-5-1-1-1-1-1-1-1-1-3-3-3-3-3-3-3-3-3-3-3-3-4-4-4-4-5-5-5-5-5-5-5-5--|
D|----------------------------------3-3-3-3-3-3-3-3----------------------------------|

e|---------------------|
B|---------------------|
G|---------------------|
D|---------------------|x4
A|---------------------|
D|--12--10--8--7--5-3--|

e|-----------------------------------------------|
B|--13b-13b-13b-13b-13~--------------------------|
G|-----------------------10-h12-p10-h12-p10-h12--|
D|-----------------------------------------------|
A|-----------------------------------------------|
D|-----------------------------------------------|

e|--------------------------------------------------|
B|------------10------------10-----13-13-14-14-15~--|
G|--12-p10--------12-p10-------12-------------------|
D|---------12------------12-------------------------|
A|--------------------------------------------------|
D|--------------------------------------------------|

e|-----13-15-15b-15~-----13-15-13---------13-15b-p13-15b-15b------|
B|--15----------------15----------15~--15--------------------15~--|
G|----------------------------------------------------------------|
D|----------------------------------------------------------------|
A|----------------------------------------------------------------|
D|----------------------------------------------------------------|


e|-----------------------------------------------------------------------------------|     
B|-----------------------------------------------------------------------------------|
G|-----------------------------------------------------------------------------------|  
D|--7-7-7-7-7-7-7-7-3-3-3-3-3-3-3-3-----------------5-5-5-5-6-6-6-6-7-7-7-7-7-7-7-7--|x4
A|--5-5-5-5-5-5-5-5-1-1-1-1-1-1-1-1-3-3-3-3-3-3-3-3-3-3-3-3-4-4-4-4-5-5-5-5-5-5-5-5--|
D|----------------------------------3-3-3-3-3-3-3-3----------------------------------|

e|---------------------------------------------------------|
B|---------------------------------------------------------|
G|---------------------------------------------------------|
D|---------------------------------------------------------|x2
A|---------------------------------------------------------|
D|--0-0-0-0--3--0--3--0--3-5~---0-0-0-0--3--0--3--0--3--0--|

Link for The Mini Band: http://theminiband.com/
Tap to rate this tab
# A B C D E F G H I J K L M N O P Q R S T U V W X Y Z