Guitaretab - guitar tabs
Song name
# A B C D E F G H I J K L M N O P Q R S T U V W X Y Z

The Mint Chicks - Opium Of The People tab

-------------------------------------------------------------------------------
			     Crazy Yes Dumb No - The Mint Chicks
-------------------------------------------------------------------------------
Tabbed by: dr avalanche
Email:dravalanche00@hotmail.com

Tuning: Standard

VERSE
C, A minor, F, G X 8

'I may be crazy but I'm not dumb' Part
F, G, C, F, G

Chorus Part
C, F, G X2

'Oh no'part
A minor, F X2

Interlude ( i think this probably off a bit

A, B, C, B X8  (on the 8th time there is a variation but I can't work it 
out properly)

[ Tab from: http://www.guitaretab.com/t/the-mint-chicks/150093.html ]
Solo 
e-----------------------------------------------------------|
B-----------------------------------------------------------|
G-----------------------------------------------------------|
D---2-3-5-7-5-3-2-----3---5-----2-3-5-7-5-3-2------3---5----|
A-3-----------------3---5-----3------------------3----5-----|
E-----------------1----3------------------------1----3------|


e-----------------------------------------------------------|
B-----------------------------------------------------------|
G-----------------------------------------------------------|
D-----------------------------------------------------------|
A-2-------0-2-3---0-2-5-7-5-3-0-5-7-5-3---------------------|
E-----------------------------------------------------------|


e-----------------------------------------------------------|
B-----------------------------------------------------------|
G-----------------------------------------------------------|
D---------------------5-----6-------------------------------|
A-2-------0-2-3--0-3----7-5---8-6---------------------------|
E-----------------------------------------------------------|

*KEY CHANGE*

VERSE
C#, A#, F#, G# X 6

'I may be crazy but I'm not dumb' Part
F#, G#, C#, F#, G#

Chorus Part
C#, F#, G# X2

'Oh no'part
A#, F# X2


End

c# F# G
Related for Opium Of The People tab