Song name
# A B C D E F G H I J K L M N O P Q R S T U V W X Y Z

The Mint Chicks - Shes Back On Crack tab

Help us improve GuitareTab! Take a short survey!
The Mint Chicks  Shes Back On Crack


Intro
e|----------------------------------------------------------------|
B|----------------------------------------------------------------|
G|----------------------------------------------------------------|
D|----------------------------------------------------------------|
A|----------------------------------------------------------------|
E|-15-13-11-9-7-5-3-1---15-13-11-9-7-5-3-1------------------------|
Slide between these notes.

Verse 1
e|----------------------------------------------------------------|
B|----------------------------------------------------------------|
G|-----------------------55555---------66665------5---------------|
D|--55555-55555--55555--55555--55555--66665--55555---------------|
A|--55555-55555-55555--33333--55555--44443--55553---------------|
E|--33333-33333--33333---------33333---------3333----------------|

e|----------------------------------------------------------------|
B|----------------------------------------------------------------|
G|-----------------------55555---------66665------5---------------|
D|--55555-55555--55555--55555--55555--66665--55555---------------|
A|--55555-55555-55555--33333--55555--44443--55553---------------|
E|--33333-33333--33333---------33333---------3333----------------|

Chorus
e|----------------------------------------------------------------|
B|----------------------------------------------------------------|
G|----------------------------------------------------------------|
D|----------------------------------------------------------------|
A|-17-15-13-11-9-7-5-3---17-15-13-11-9-7-5-1--17-15-13-11-9-7-5-3|
E|-15-13-11-9--7-5-3-1---15-13-11-9--7-5-3-1---15-13-11-9--7-5-3-1|

Bridge
e|----------------------------------------------------------------|
B|----------------------------------------------------------------|
G|-44444--44444---------------------------------------------------|
D|-44444--44444---------------------------------------------------|
A|-22222--22222---------------------------------------------------|
E|----------------------------------------------------------------|

Verse 2
e|----------------------------------------------------------------|
B|----------------------------------------------------------------|
G|-----------------------55555---------66665------5---------------|
D|--55555-55555--55555--55555--55555--66665--55555---------------|
A|--55555-55555-55555--33333--55555--44443--55553---------------|
E|--33333-33333--33333---------33333---------3333----------------|

e|----------------------------------------------------------------|
B|----------------------------------------------------------------|
G|-----------------------55555---------66665------5---------------|
D|--55555-55555--55555--55555--55555--66665--55555---------------|
A|--55555-55555-55555--33333--55555--44443--55553---------------|
E|--33333-33333--33333---------33333---------3333----------------|

Chorus
e|----------------------------------------------------------------|
B|----------------------------------------------------------------|
G|----------------------------------------------------------------|
D|----------------------------------------------------------------|
A|----------------------------------------------------------------|
E|-15-13-11-9--7-5-3-1---15-13-11-9--7-5-3-1---15-13-11-9--7-5-3-1|

Bridge
e|----------------------------------------------------------------|
B|----------------------------------------------------------------|
G|-44444--44444---------------------------------------------------|
D|-44444--44444---------------------------------------------------|
A|-22222--22222---------------------------------------------------|
E|----------------------------------------------------------------|

Verse 3
e|----------------------------------------------------------------|
B|----------------------------------------------------------------|
G|-----------------------66666---------77776------6--77776------6-|
D|--66666-66666--66666--66666--66666--77776--66666--77776--66666-|
A|--66666-66666-66666--44444--66666--55554--66664--55554--66664-|
E|--44444-44444--44444---------44444---------4444----------4444--|









Related for Shes Back On Crack tab