Guitaretab - guitar tabs
Song name
# A B C D E F G H I J K L M N O P Q R S T U V W X Y Z

The Mint Chicks - My Arpeggio tab

-----------------------------------------------------------------------------
			     MY ARPEGGIO  The Mint Chicks
-----------------------------------------------------------------------------
Tabbed by: Benny Fury
Email:

Very basic, 

(format to: Courier New, font size 6)

Tuning: Standard

Verse 1
e|--------------------------------------------------------------------------|
B|--7-------3-------7-------3-------7-------3-------7-------3---------------|
G|----9-------6-------9-------6-------9-------6-------9-------6-------------|
D|------9-------5-------9-------5-------9-------5-------9-------5-----------|
A|--------------------------------------------------------------------------|
E|--------------------------------------------------------------------------|

Chorus 1
e|--------------------------------------------------------------------------|
B|--5-------5-------5-------5-------5-------5-------5-------5---------------|
G|-------7-------7-------7-------7-------7-------7-------7-------7----------|
D|----7-------7-------7-------7-------7-------7-------7-------7-------------|
A|--------------------------------------------------------------------------|
E|--------------------------------------------------------------------------|

Verse 2
e|--------------------------------------------------------------------------|
B|--7-------3-------7-------3-------7-------3-------7-------3---------------|
G|----9-------6-------9-------6-------9-------6-------9-------6-------------|
D|------9-------5-------9-------5-------9-------5-------9-------5-----------|
A|--------------------------------------------------------------------------|
E|--------------------------------------------------------------------------|
[ Tab from: http://www.guitaretab.com/t/the-mint-chicks/98003.html ]
Chorus 2
e|--------------------------------------------------------------------------|
B|--5-------5-------5-------5-------5-------5-------5-------5---------------|
G|-------7-------7-------7-------7-------7-------7-------7-------7----------|
D|----7-------7-------7-------7-------7-------7-------7-------7-------------|
A|--------------------------------------------------------------------------|
E|--------------------------------------------------------------------------|

Solo
e|--------------------------------------------------------------------------|
B|--5--5--5--5--5--5--5-5-/-17--17--17--17--17--17--17---\-----------------|
G|---7--7--7--7--7--7--7--/----19--19--19--19--19--19--19-\-----------------|
D|--------------------------------------------------------------------------|
A|--------------------------------------------------------------------------|
E|--------------------------------------------------------------------------|

e|--------------------------------------------------------------------------|
B|--5--5--5--5--5--5--5-5-/-17--17--17--17--17--17--17---\-----------------|
G|---7--7--7--7--7--7--7--/----19--19--19--19--19--19--19-\-----------------|
D|--------------------------------------------------------------------------|
A|--------------------------------------------------------------------------|
E|--------------------------------------------------------------------------|

Chorus 3
e|--------------------------------------------------------------------------|
B|--5-------5-------5-------5-------5-------5-------5-------5---------------|
G|-------7-------7-------7-------7-------7-------7-------7-------7----------|
D|----7-------7-------7-------7-------7-------7-------7-------7-------------|
A|--------------------------------------------------------------------------|
E|--------------------------------------------------------------------------|

END

| /  slide up
| \  slide down
| h  hammer-on
| p  pull-off
| ~  vibrato
| +  harmonic
| x  Mute note
===============================================================================


Related for My Arpeggio tab