Song name
# A B C D E F G H I J K L M N O P Q R S T U V W X Y Z

The Miserables - One Small Mistake tab

-------------------------------------------------------------------------------
			     One Small Mistake - The Miserables
-------------------------------------------------------------------------------
Tabbed by: Steven [aint gun tell u my last name]
Email:Stevo_651@hotmail.com

Tuning:Drop C
        Palm Mute = PM.  pinch harmonic = *           H = hammer on
       Tremolo = TP.     / \ = slides [up or down]    P = Pull Off
        ~ = lettin ring
  ~~Intro~~  (use of pedal im not 2 wat kind, preferably SFX)
D|-------------------------------------------------------------------------|
A|-------------------------------------------------------------------------|
F|-------------------------------------------------------------------------|
C|-0~~~--1~~~--0~~~--1~~~--------------------------------------------------|
G|-0~~~--1~~~--0~~~--1~~~--------------------------------------------------|
C|-0~~~--1~~~--0~~~--1~~~--------------------------------------------------|
 ~~~intro part 2~~~  [ x2 ]
D|-------------------------------------------------------------------------|
A|-------------------------------------------------------------------------|
F|-------------------------------------------------------------------------|
C|-0~~~-1~~~-5~~~-8~~~-----------------------------------------------------|
G|-0~~~-1~~~-5~~~-8~~~-----------------------------------------------------|
C|-0~~~-1~~~-5~~~-8~~~-----------------------------------------------------|

  ~~~Verse~~~ [ x5 ]
D|-------------------------------------------------------------------------|
A|-------------------------------------------------------------------------|
F|-------------------------------------------------------------------------|
C|-0000-0-0-0000-0-0-0000-0-0-0000-----------------------------------------|
G|-0000-0-0-0000-0-0-0000-0-0-0000---3*------------------------------------|
C|-0000-0-0-0000-0-0-0000-0-0-0000-1---------------------------------------|
PM .... . . .... . . .... . . .... .

Pre Chorus
D|-------------------------------------------------------------------------|
A|-------------------------------------------------------------------------|
F|-------------------------------------------------------------------------|
C|-------5-5-7-------5-5-6-------------------------------------------------|
G|-------5-5-7-------5-5-6-------------------------------------------------|
C|--0000-------0000--------------------------------------------------------|
 PM ....       ....    

~~chorus pt1~~      this part x3                 end on...
D|-----------------------------------------|-------------------------|
A|-----------------------------------------|-------------------------|
F|-----------------------------------------|----------7--------------|
C|--00-5-4-5-7-5-4--0-0--5-4--0-0--5-4-----|---4h5p4-----------------|
G|--00-5-4-5-7-5-4--0-0--5-4--0-0--5-4-----|-------------------------|
C|--00--------------0-0-------0-0----------|-------------------------|
 PM ..              .         .

 ~~Break~~
D|-------------------------------------------------------------------------|
A|-------------------------------------------------------------------------|
F|-------------------------------------------------------------------------|
C|--3333--3-3-3-3--3333--0000--0000----------------------------------------|
G|--3333--3-3-3-3--3333--0000--0000----------------------------------------|
C|--3333--3-3-3-3--3333--0000--0000----------------------------------------|
 PM ....  . . . .  ....  ....  ....

~~~Chorus Pt2~~~ [ x4 ]
D|-------------------------------------------------------------------------|
A|-------------------------------------------------------------------------|
F|-------------------------------------------------------------------------|
C|-33333333-77777777-22222222-1111-----------------------------------------|
G|-33333333-77777777-22222222-1111-----------------------------------------|
C|-33333333-77777777-22222222-1111-----------------------------------------|

Play verse 4 times
Play pre-chorus
Play chorus pt1 how shown
Play Break x 2
Play chorus pt2 x4

~~under solo~~ [ x6 ]                [x2]     
D|--------------------------|------------|---------------------------|
A|--------------------------|------------|---------------------------|
F|--------------------------|------------|---------------------------|
C|-0-4-3--2-1--44--2-1--55--|-0-4-3--1-0-|--0000-1-------------------|
G|-0-4-3--2-1--44--2-1--55--|-0-4-3--1-0-|--0000-1---[x4]-----------|
C|-0-4-3--2-1--44--2-1--55--|-0-4-3--1-0-|--0000-1-------------------|
PM        . .      . .        . . .  . .    .... .

~~~Quick Break~~~
D|-------|
A|-------|
F|-------|
C|-0000--|
G|-0000--|
C|-0000--|
PM ....

~~~Interlude~~~  x2                  tp and lightly pm  x2 
D|----------------------------------|-------------------------------------|
A|----------------------------------|-------------------------------------|
F|----------------------------------|-------------------------------------|
C|----------------------------------|-------------------------------------|
G|--33333333-77777777-22222222-1111-|-------------------------------------|
C|----------------------------------|-33333333-77777777-22222222-1111-----|
                                 TP/PM...............................
Play Chorus part 2 x4
and end on
D|-------------------------------------------------------------------------|
A|-------------------------------------------------------------------------|
F|-------------------------------------------------------------------------|
C|-0-4-3--111-0------------------------------------------------------------|
G|-0-4-3--111-0------------------------------------------------------------|
C|-0-4-3--111-0------------------------------------------------------------|
 Pm       ...


END OF SONG!!!
have any questions email me at stevo_651@hotmail.com
thnku and only use for learning purposes :)
Tap to rate this tab
# A B C D E F G H I J K L M N O P Q R S T U V W X Y Z