Song name
# A B C D E F G H I J K L M N O P Q R S T U V W X Y Z

The Mongols - Wigout tab

Help us improve GuitareTab! Take a short survey!
Song: Wigout
Artist/Band: The Mongols
Album: Buddha's Pest

Guitar 1 - lead guitar                h - hammer
Guitar 2 - rhythm guitar              p - pull off
s - slide

*Tip: Mas maganda kung power chords ang gagamitin sa kantang ito.

Intro:
(guitar 1)
E|-----------------------------------------------------------|
B|--1--1-1s10-10-10---1--1-1s10-10-10---1--1-1-s10-10-10-----|
G|-----------------------------------------------------------|
D|-----------------------------------------------------------|
A|-----------------------------------------------------------|
E|-----------------------------------------------------------|

E|----------------|
B|--1--1-1s10-----|
G|----------------|
D|----------------|
A|----------------|
E|----------------|

(guitar 2)
C-A (4x)

Verse:
G             B
Feel like a troglodyte tonight
G              B                    G
All bark no bite, turn out the light
           B          G
Making a mockumentary
          B                C      A
A silent sentry, it's elementary

Refrain:
(guitar 2)
           C-A
Don't wigout
           C-A break
Don't wigout
                                      G-B-G-B
I'm closing, I'm closing, I'm closing in

(guitar 1)
E|-------------------|
B|--3-5s7-7-7h8p7-8--|
G|-------------------|
D|-------------------|
A|-------------------|
E|-------------------|
 ...in

Verse 2: (do verse chords)
Keeping secrets tell your own in gray
It's not too late to give it away
Everybody's wrapped in cellophane
Go sell your pain, repeat refrain

(repeat refrain except last word)
    G
...in

Adlib:
(guitar 1)
|-----3-3---3-3h5-3-----3-5-7-7-7-8p7-5-7-3-------3------------------|
|-3h5-----5---------3h5---------------------5-3h5---5-3-----3-3h5-3--|
|-------------------------------------------------------2h4----------|
|--------------------------------------------------------------------|
|--------------------------------------------------------------------|
|--------------------------------------------------------------------|

(continuation)
-----------------------------|
-----------------------------|
--2-0-2-0-2-0-----0-2-0-2s4--|
--------------0h2------------|
-----------------------------|
-----------------------------|

Verse 3: (do verse chords)
Feel like a minotaur today
The minutes are all a mountain away
Nothing to do but sniff and graze
All caught in a haze
Inside your maze

(repeat refrain)


(guitar 1)
E|-------------------|
B|--3-5s7-7-7h8p7-8--|
G|-------------------|
D|-------------------|
A|-------------------| 4x
E|-------------------|

(guitar 2)
             G-B
I'm closing in   (3x)

(guitar 2)
             G-B
Whoo whoo whoo (4x)

(guitar 1)
E|----------------|
B|--5-5p3-3-------|
G|----------2h4-4-|
D|----------------|
A|----------------| 4x
E|----------------|

Outro: (guitar 1)
E|--------|
B|---s10--|
G|--------|
D|--------|
A|--------|
E|--------|

(guitar 2)
C-A


Whew! Hirap gawin non, ah...paki-rate na lang...
Related for Wigout tab