Song name
# A B C D E F G H I J K L M N O P Q R S T U V W X Y Z

The Monks - Nice Legs Shame About Her Face tab

E----------------------------------------------------------------------E
B---------------------------------------------5--5--55--55--55--55-----B
G---------------------------------------------6--6--66--66--66--66-----G
D---2--2--2--2------7--7--77--77--77--77------7--7--77--77--77--77-----D
A---0--0--0--0------5--5--55--55--55--55------0--0--00--00--00--00-----A
E----------------------------------------------------------------------E

E----------------------------------------------------------------------E
B-----------------------------5--5--55--55--55-------------------------B
G-----------------------------6--6--66--66--66-------------------------G
D---9--9--99------77--77------7--7--77--77--77-------------------------D
A---7--7--77------55--55------0--0--00--00--00-------------------------A
E----------------------------------------------------------------------E
Tap to rate this tab
# A B C D E F G H I J K L M N O P Q R S T U V W X Y Z