Song name
# A B C D E F G H I J K L M N O P Q R S T U V W X Y Z

The Monks - I Hate You tab

Song:  I Hate You
Band:  The Monks
Album: Black Monk Time

  Intro - Bass plays this for pretty much whole song.
G|---------------------------------|
D|---------------------------------|
A|---------------------------------|
E|---5555-55/6/7/8-8888-88\7\6\5---|
     A           C

  Guitar 1 - Acoustic Enters
E|-------------------------------|
B|-------------------------------|
G|---6666-6-6----9-9-9-9--9-9----|
D|---7777-7-7----10101010-1010---|
A|---7777-7-7----10101010-1010---|
E|---5555-5-5----8-8-8-8--8-8----|

  Guitar 2 - Electric Guitar Enters
E|---5-(5)-x--8--(8)---x--|
B|---5-(5)-x--8--(8)---x--|
G|---6-(6)-x--9--(9)---x--|
D|---7-(7)-x--10-(10)--x--|
A|---7-(7)-x--------------|
E|------------------------|
     A        C

The Guitar stays the same for pretty much the whole song apart from slight changes 
the feedback bit like this:
E|---555-555-x--8-8-8--9-8-8--x---|
B|---555-555-x--8-8-8--8-8-8--x---|
G|---666-666-x--9-9-9--9-9-9--x---|
D|---777-777-x--101010-101010-x---|
A|---777-777-x--------------------|
E|--------------------------------|
     A          C

Then for the feedback bit hit some random notes and bends in scales of A or C, attack
guitar as you see fit and dont be shy with the tremelo arm if you have one.
As thats the monk way! Anywho this is an awesome hypnotic song so enjoy!
Tap to rate this tab
# A B C D E F G H I J K L M N O P Q R S T U V W X Y Z