Song name
# A B C D E F G H I J K L M N O P Q R S T U V W X Y Z

The Monomes - Dreamkiller chords

Highlighted       Show chord diagrams
A                  E
A normal day, everything seems all right 

  F#m                       D
A thirteen year old, with a gun in his hand 

   A                E
He left for school, waving goodbye 

    F#m                     D
Not knowing that now, there is no way back 

A                         E
All that was given, he'll take it away 

   F#m                      D
He doesnīt even care, there are more to blame 

     A                        E
Then shoots a poor girl, that was running late 

    F#m                        D                        E
She falls and she bleeds, with no time, with no time to flea 


    A            D  
You donīt understand 

    E 
You donīt understand 

A               D         F#m        E
When you take a life, you are taking mine 

    A            D  
You donīt understand 

    E 
You donīt understand 

A               D
What weīve been growing 

     F#m          E                A
With patience and love has fallen apart 


    A                      E
The feeling of pain, never felt it before 

  F#m                            D  
I know itīs not easy, that there isnīt a cure 

     A                  E   
Stop looking away, quit turning around 

F#m                        D                        E
Silence and violence would sure turn you down, ooooooh 


    
    A            D  
You donīt understand 

    E 
You donīt understand 

A               D         F#m        E
When you take a life, you are taking mine 

    A            D  
You donīt understand 

    E 
You donīt understand 

A               D
What weīve been growing 

     F#m          E                A
With patience and love has fallen apart 

(Guitar solo)

E------------------------------------------------------------------------|
A------------------------------------------------------------------------|
D------------------------------------------------------------------------|
G------------------------------------------------------------------------|
B-2--------------------------10-----10--7--10------2-2-2-2-2-2-0-2-2-2---|
e---0--2--5---9--8--12--9--7-----7---------------------------------------|

                             
E------------------------------------------------------------------------|
A------------------------------------------------------------------------|
D------------------------------------------------------------------------|
G-------------------------------------------2----------------------------|
B--2-2-2-2-2-2-0-2-2-2---2-2-2-2-2-2-2-0-0-------2-3-------2-2-3-2-------|
e----------------------------------------------------0-0-1---------------|


E------------------------------------------------------------------------|
A------------------------------------------------------------------------|
D----------------------------------------------------------12-11---------|
G-------------2------------------------------------------9---------------|
B---3-2-3-2-0-----------------------------------------10-----------------|
e-0-----------------7-9-9---14--9-9-10-9-12-10-9-10-9--------------------|


A                   E   
A normal day, everything seems all rigth

F#m                      D
a thirteen year old, betrayed by his dad

A                      E  
I filling my time with messages of hope

F#m                    D
I filling my time with thoughts of love


    A            D  
You donīt understand 

    E 
You donīt understand 

A               D         F#m        E
When you take a life, you are taking mine 

    A            D  
You donīt understand 

    E 
You donīt understand 

A               D
What weīve been growing 

     F#m          E                A
With patience and love has fallen apart 

http://www.themonomes.com/
Tap to rate this tab
 
# A B C D E F G H I J K L M N O P Q R S T U V W X Y Z