Song name
# A B C D E F G H I J K L M N O P Q R S T U V W X Y Z

The Moog - When I See You tab

I've finaly managed to finde out the tab for 'when I see you' by the moog. It's one of 
the best indie rock songs ever!!! enjoy!!!
Play with standard tuning. (EADGBe)
Play with distortion.

   Intro:
e|---------------------|
B|---------------------|
G|-------------8----4--|
D|---4----8----8----4--|x3
A|---4----8----6----2--|
E|---2----6------------|

   Verse:
e|---------------|--------------|--------------|---------------------------|
B|---------------|--------------|--------------|---------------------------|
G|---------------|--8--6--4--3--|--------------|--8--6--4--3-4-3-4-3-4-3-4-|
D|---------3--4--|--------------|--------3--4--|---------------------------|
A|--\1--2--------|--------------|--1--2--------|---------------------------|
E|---------------|--------------|--------------|---------------------------|

   Chorus:
e|--------------------------------|
B|--------------------------------|
G|----------------8---8----4---4--|
D|--4-4----8-8----8---8----4---4--| Play 3 More Times
A|--4-4----8-8----6---6----2---2--|
E|--2-2----6-6--------------------|

    Then Play:

e|-----------------------------|
B|------------------3-3-3-3----|
G|--4-4-4-4-4-4-4-4-4-4-4-4----|
D|--4-4-4-4-4-4-4-4-4-4-4-4-4--|
A|--2-2-2-2-2-2-2-2-2-2-2-2-4--|
E|--------------------------2--|

    Solo 1:
e|-----------------------------|------------------------------------|
B|--7----7--6----6--7----7-----|--19----19--18----18--19----19------|
G|--------------------------4--|--------------------------------16--|
D|-----------------------------|------------------------------------|
A|-----------------------------|------------------------------------|
E|-----------------------------|------------------------------------|

   Verse:
e|---------------|--------------|--------------|---------------------------|
B|---------------|--------------|--------------|---------------------------|
G|---------------|--8--6--4--3--|--------------|--8--6--4--3-4-3-4-3-4-3-4-|
D|---------3--4--|--------------|--------3--4--|---------------------------|
A|--1--2---------|--------------|--1--2--------|---------------------------|
E|---------------|--------------|--------------|---------------------------|

  Chorus:
e|--------------------------------|
B|--------------------------------|
G|----------------8---8----4---4--|
D|--4-4----8-8----8---8----4---4--| Play 3 More Times
A|--4-4----8-8----6---6----2---2--|
E|--2-2----6-6--------------------|

    Then Play:

e|-----------------------------|
B|------------------3-3-3-3----|
G|--4-4-4-4-4-4-4-4-4-4-4-4----|
D|--4-4-4-4-4-4-4-4-4-4-4-4-4--|
A|--2-2-2-2-2-2-2-2-2-2-2-2-4--|
E|--------------------------2--|

   Solo 2:

I don't know how to play this solo but when I do I'll upload it.



   Bridge:

e|-------------------------|
B|-------------------------|
G|---------------8-8---4-4-|
D|---4-4---8-8---8-8---4-4-|x2
A|---4-4---8-8---6-6---2-2-|
E|---2-2---6-6-------------|


  Chorus:
e|--------------------------------|
B|--------------------------------|
G|----------------8---8----4---4--|
D|--4-4----8-8----8---8----4---4--| Play 3 More Times
A|--4-4----8-8----6---6----2---2--|
E|--2-2----6-6--------------------|

    Then Play:

e|-----------------------------|
B|------------------3-3-3-3----|
G|--4-4-4-4-4-4-4-4-4-4-4-4----|
D|--4-4-4-4-4-4-4-4-4-4-4-4-4--|
A|--2-2-2-2-2-2-2-2-2-2-2-2-4--|
E|--------------------------2--|




    Lyrics:

I say I'm busy everyday
Just to feel I don't obey
I think I'll leave without a trace
So I never fall from grace

Just want me, just need me
Just say that I'm your baby
I love you then kill you
When I see you I go
Woohoowhooo

Have I found somebody new
Or is it just another you?
I feel the flood is on its way
Are we strong enough to stay?

Just want me, just need me
Just say that I'm your baby
I haunt you then kill you
When I see you I go
Woohoowhooo


If you've got any questions my e-mail is: f.calabro@btinternet.com


Tabbed By Franco
Tap to rate this tab
# A B C D E F G H I J K L M N O P Q R S T U V W X Y Z