Song name
# A B C D E F G H I J K L M N O P Q R S T U V W X Y Z

The Morning Benders - Crosseyed tab

Help us improve GuitareTab! Take a short survey!
Highlighted       Show chord diagrams
-----------------------------------------------------------------------------
			     Crosseyed - The Morning Benders

This is my first time so if you need more information on how to play it or
have any other questions, feel free to send me an email. Great song. Enjoy.

-----------------------------------------------------------------------------
Tabbed by: Matt Dyce
Email: mathiasdyce@hotmail.com

Tuning: Standard
								     
 Verse (Play Twice)	                                                                  
							         x5    x5       
e|------------------0--2--2--2--2--2--0-----------------0--2--0--2--0--2--0-|
B|---------2--2--2--0--3--3--3--3--3--0--------2--2--2--0--3--0--2--0-----0-|
G|---2--2--2--2--2--0--2--2--3--3--3--0--2--2--2--2--2--0--2--0--2--0-----0-|
D|---2--2--2--2--2--0-----------------0--2--2--2--2--2--0-----0--4--0-----0-|
A|------------------0-----------------0-----------------0-----0--4--0--2--0-|
E|------------------0-----------------0-----------------0-----0--2--0--3--0-|

Play when finishing the verse for the 2nd time:
    x6
e|-----|
B|-----|
G|--1--|
D|--2--|
A|--2--|
E|-----|

 Pre-Chorus (Play Twice)
     x4    x5                    x6
e|---1--0--2--0---------------0-----|
B|---3--0-----0--5--5-5-5--5--0--1--|
G|---2--0-----0---------------0--2--|
D|------0-----0--5--5-5-5--5--0--2--|
A|------0--2--0--3--3-0-2--2--0-----|
E|------0--3--0---------------0-----|

 Almost-Chorus (Right after 2nd time pre-chorus)
     x3                x5 x6
e|---1--0-----------0---------|
B|---3--0-----------0--1--1---|
G|---2--0--1--1--1--0--2------|
D|------0--2--2-----0--2--2---|
A|------0--2--2--2--0---------|
E|------0-----------0---------|

Chorus in the middle of the song:
     x3        x3
e|-----------------|
B|---1--11--1------|
G|---2---2h-2--1---|
D|---3--33--3--2---|
A|---3--33--3--2---|
E|-----------------|

Chorus at the end of the song (repeat until vocals are over)
     x3     x5    x8
e|-------------0--2------|
B|---1--11--1--0---------|
G|---2---2h-2--0---------|
D|---3--33--3--0---------|
A|---3--33--3--0--2------|
E|-------------0--3------|

| /  slide up
| \  slide down
| h  hammer-on
| p  pull-off
| ~  vibrato
| +  harmonic
| x  Mute note
=============================================================================
Related for Crosseyed tab