Song name
# A B C D E F G H I J K L M N O P Q R S T U V W X Y Z

The Morning Benders - Stitches tab

E|---------------------------------------------------------------|
B|-------8-----------5------------12-------------13------------8-|
G|-------9-----------5------------12-------------14------------9-|
D|---------------------------------------------------------------|
A|---7-----------3-----------10-------------12-------------7-----|
E|---------------------------------------------------------------|

E|--------------------------------------|
B|-----------5-----------7-----------3--|
G|-----------5-----------7-----------4--|
D|--------------------------------------|
A|-------3-----------5-----------2------|
E|--------------------------------------|
Tap to rate this tab
 
# A B C D E F G H I J K L M N O P Q R S T U V W X Y Z