Song name
# A B C D E F G H I J K L M N O P Q R S T U V W X Y Z

The Morning Benders - Boarded Doors tab

b  = full bend
/  = slide
*  = harmonics
x  = scratch

Standard Tuning

Chords for chorus:
C:  x 3 2 0 1 x
Am: x 0 2 2 1 x
Em: 0 2 2 0 0 0
Dm: x x 0 2 3 1
G:  3 2 0 0 0 3

Intro:
e|-------------|
B|--15-13------|
G|--12-12------|x8
D|--14-14------|
A|--12-12------|
E|-------------|
  (downstroke first chord, upstroke second chord)

Here's the riff for the verse, listen to song for timing:
e|-------------13-13------*12--------|
B|--15-13------13-13------*12--------|
G|--12-12------14-14------*12--------|
D|--14-14------15-15-----------------|
A|--12-12------15-15-----------------|
E|----------13-13-13-----------------|

Chorus (listen for timing):
(Play base note of chord, then whole chord)

C            Am
Maybe you're right
   C           Em
To stay in the light
  Dm        G
But tell me please
      C          Em
Where does that leave me?

e|-------------|
B|--15-13------|
G|--12-12------|x4
D|--14-14------|
A|--12-12------|
E|-------------|

Verse 2:
First 2 lines of 2nd verse have no guitar
Guitar comes back with the same verse riff as above^

Chorus:
C            Am
Maybe you're right
   C           Em
To stay in the light
  Dm        G
But tell me please
      C          Em
Where does that leave me?

Then:
e|--------------------------12121212-----0--|
B|--15-13---15-13---15-13---14bbbbbbbb---0--|
G|--12-12---12-12---12-12----------------0--|
D|--14-14---14-14---14-14----------------0--|
A|--12-12---12-12---12-12----------------0--|
E|---------------------------------------0--|

Bridge:
  (Palm Muted)
e|---------------------------------------|
B|---------------------------------------|
G|---------------------------------------|
D|---7--7--2--2--2--2--6--6--3--3--3--3--|Play for whole bridge
A|--8--8--3--3--3--3--7--7--5--5--5--5---|
E|---------------------------------------|

 "...it's out of the warm and into the snow"
  Play right after "snow"
e|-------------|
B|--15-13------|
G|--12-12------|x4
D|--14-14------|
A|--12-12------|
E|-------------|

Solo (again, listen for timing):
e|--xxxx-----------------------------------|
B|--xxxx-----------------------------------|
G|--xxxx-14/17/16/9/10/14/12/5/7/12/9------|
D|--xxxx-----------------------------------|
A|--xxxx-12/15/14/7/ 8/12/10/3/5/10/7------|
E|--xxxx-----------------------------------|

e|--xxxx-------------------------------------------------|
B|--xxxx-------------------------------------------------|
G|--xxxx-14/17/16/19/17/16/17/19/21-19-17-16-17-16-14----|
D|--xxxx-------------------------------------------------|
A|--xxxx-12/15/14/17/15/14/15/17/19-17-15-14-15-14-12----|
E|--xxxx-------------------------------------------------|

e|--15-15-----------15-15--------------------------------|
B|----------12-12----------------------------------------|
G|--12-12-----------12-12--------------------------------|
D|-----------9--9-----------7-7/10-10-9-8-7---5/7--------|
A|-------------------------------------------------------|
E|--------------------------5-5/8---8-7-6-5---3/5--------|

  Fast tremolo picking

e|--10-10-10--8--8--8--7--7--7-5-5-5-3-3-3-0-0-0-3-3-3--------|
B|--10-10-10-10-10-10-10-10-10--------------------------------|
G|-----------------------------------------------------5-4-3-2|
D|------------------------------------------------------------|
A|------------------------------------------------------------|
E|------------------------------------------------------------|

e|-------------|
B|--15-13------|
G|--12-12------|x8
D|--14-14------|
A|--12-12------|
E|-------------|

 And there it is. It's not quite 100% correct but it's close.
Tap to rate this tab
 
# A B C D E F G H I J K L M N O P Q R S T U V W X Y Z