Song name
# A B C D E F G H I J K L M N O P Q R S T U V W X Y Z

The Morning Benders - Oh Annie chords

Highlighted       Show chord diagrams
Oh Annie - The Morning Benders

Verse 1
E	         G#m   C#m   B	
Where did I go wrong?
A		    C#	   F#m	
I canít wrap my head around it.
         F#m		B
And Iíve followed my steps,
          E
And I havenít put a name on it.


Verse 2
E	        G#m   C#m   B	
When I saw your face,
A		    C#	   F#m	
I knew that I would try to change it,
         F#m		       B
And it worked so miserably,
               E
ĎCause now you wanna leave me.


Chorus
A	     G#m  G#m7
Annie, oh Annie,
		C#m
How can you go?
		C#		       F#m
I taught you everything and you know,
	B	    A
You know, you know.

e|-0-0-4-2---4-4-4-4---2-2-2-2---0-0-0-0----------------------------|
B|-2-2-2-2---4-4-7-5---2-2-5-4---0-0-4-2----------------------------|
G|-2-2-2-2---4-4-4-6---2-2-2-4---1-1-1-1----------------------------|
D|-2-2-2-2---6-6-6-6---4-4-4-4---2-2-2-2----------------------------|
A|-0-0-0-0---6-6-6-4---4-4-4-2---2-2-2-2----------------------------|
E|-0-0-0-0---4-4-4-x---2-2-2-x---0-0-0-0----------------------------|


Verse 3
E	        	        G#m   C#m   B	
I heard you moved away,
A		    C#	   F#m	
To a world a little warmer,
         F#m		   B
And Iíll take you right back,
                 E
If youíre ever feeling dried out.

Chorus
A	     G#m  G#m7
Annie, oh Annie,
		C#m
How can you go?
		C#		       F#m
I taught you everything and you know,
	B	    A
You know, you know.

e|-0-0-4-2---4-4-4-4---2-2-2-2---0-0-0-0----------------------------|
B|-2-2-2-2---4-4-7-5---2-2-5-4---0-0-4-2----------------------------|
G|-2-2-2-2---4-4-4-6---2-2-2-4---1-1-1-1----------------------------|
D|-2-2-2-2---6-6-6-6---4-4-4-4---2-2-2-2----------------------------|
A|-0-0-0-0---6-6-6-4---4-4-4-2---2-2-2-2----------------------------|
E|-0-0-0-0---4-4-4-x---2-2-2-x---0-0-0-0----------------------------|

Tap to rate this tab
 
# A B C D E F G H I J K L M N O P Q R S T U V W X Y Z