Song name
# A B C D E F G H I J K L M N O P Q R S T U V W X Y Z

The Morning Of - Violins And Trees chords

Highlighted       Show chord diagrams
THE MORNING OF - VIOLINS AND TREES (UNFORGETTABLE)
--------------------------------------------------

words and music by:  The Morning Of, http://www.myspace.com/themorningof
tabbed by:           Jakob D. Siegler, http://www.myspace.com/jakobsiegler


INTRO:

      Am7 Dm7 Fmaj7/A

E|----|5--5----|5--5----||
B|----|5--6----|5--5----||
G|----|5--5----|5--5----|| 2x
D|----|5--7----|7--7----||
A|----|7--5----|8--8----||
E|----|5--X----|5--5----||

 Time: 1+2+3+4+ 1+2+3+4+



VERSE 1:

Am7             Dm7      Fmaj7/A    
   My soul was swayed by violins and trees.
Am7       Dm7                Fmaj7/A
   I was sick for dark as the wind sank through the breeze.
Am7           Dm7          Fmaj7/A
   Here's the pagentry and heres the carnival
Am7         Dm7           Fmaj7/A
   As the start of dusk creeps upon us all.



CHORUS:

C                         Em7
   And I will know you by how your body speaks to me
Fmaj7                     Bb7
   as we wander the night singing to the streets.
C                         Em7
   And I will know you by how you live for all your dreams.
Fmaj7                     Bb7
   You're unforgettable,    you're unforgettable.



Am7, Dm7, Fmaj7/A, Fmaj7/A
Am7, Dm7, Fmaj7/A, Fmaj7/A



VERSE 2:

Am7       Dm7              Fmaj7/A 
   Faint footsteps like a thousand overtures.
Am7              Dm7              Fmaj7/A 
   The lure of friendly eyes, the voices of the night.
Am7                  Dm7          Fmaj7/A 
   We'll drift like summer sounds on the summer air,
Am7             Dm7           Fmaj7/A (break!)
   whisper like violins while waiting for you there.



CHORUS:

C                         Em7
   And I will know you by how your body speaks to me
Fmaj7                     Bb7
   as we wander the night singing to the streets.
C                         Em7
   And I will know you by how you live for all your dreams.
Fmaj7                     Bb7
   You're unforgettable,    you're unforgettable.



INTERLUDE:

 Time: 1 e + e 2 e + e 3 e + e 4 e + e 

E|----|--------------------------------|--------------------------------|
B|----|------------------------------5-|--------------------------------|
G|----|5-----5-------5-----------5-7---|--------------------------------|
D|----|----------5-7-------------------|--------------------------5-4-3-|
A|----|--------------------------------|----------7---7-----------------|
E|----|--------------------------------|--------------------------------|

      |--------------------------------|--------------------------------||
      |----------6---6-----------------|--------------------------------||
      |--------------------------------|--------------------------------|| 3x
      |--------------------------------|3-------5-------6-------8-------||
      |--------------------------------|--------------------------------||
      |--------------------------------|--------------------------------||



CHORUS:

C                         Em7
   And I will know you by how your body speaks to me
Fmaj7                     Bb7
   as we wander the night singing to the streets.
C                         Em7
   And I will know you by how you live for all your dreams.
Fmaj7                     Bb7
   You're unforgettable,    you're unforgettable. 


OUTTRO:

C, Em7, Fmaj7, Bb7,
C, Em7, Fmaj7, Bb7, C



Yeah, that's it!
Please send me your corrections if there are any mistakes (Mail: Jes54Vers10[at]web.de).
Visit my MySpace: http://www.myspace.com/jakobsiegler
Rock on! J.

Tap to rate this tab
# A B C D E F G H I J K L M N O P Q R S T U V W X Y Z