Song name
# A B C D E F G H I J K L M N O P Q R S T U V W X Y Z

The Morning Of - Let Your Spirit Soar chords

G|----------------------------------------------------------|
D|----------------------------------------------------------|
A|0--2--------------------------2--0------------------------|
D|------2--4--5~--5-~--55-5-5~--------4--2~--2~--22-2-2~----|

G|-----------------------------------|
D|-----------------------------------|
A|0--2-----0--2----------------------|
D|------0-------0-2-4--5~---55~------|

 Verse x4
G|------------------------------------|
D|------------------------------------|
A|------------------------------------|
D|9/--4~--5--4-0~---9/--4~--0-2-5~----|

 Pre-Chorus
G|----------------------------------|
D|----------------------------------|
A|----------------------------------|
D|7~--9~--0-22~---5~--0~--4-22~-----|

 Chorus 
G|---------------------------------------------------------------------------------|
D|--------------------------12-----------------------------------------------------|
A|-----------------------12--------------------------------44444444----------------|
D|77777777-/121212121212--------55555555-77777777-99999999----------555555555555---|

G|------------------------------------------------------------------------------------------|
D|--------------------------12---------------------------7-----------7-4-4/7-4--------------|
A|-----------------------12----------------------------9---9-7-4444-------------------------|
D|77777777-/121212121212--------55555555-77777777-9999-------------------------555555555555-|

 Post-Chorus
G|------------------------------------|
D|------------------------------------|
A|------------------------------------|
D|9/--4~--5--4-0~---9/--4~--0-2-5~----|

G|-------------------------------|
D|-------------------------------|
A|-------------------------------|
D|9-9-4-4-5-5-0-0-9-9-4-4-0-2-5--|

 Verse x1
G|-------------------------------|
D|-------------------------------|
A|-------------------------------|
D|9-9-4-4-5-5-0-0-9-9-4-4-0-2-5--|

 Pre-Chorus

 Chorus

 Pause

G|-----------------|
D|-----------------|
A|-----------------|
D|222--222--22-----|

G|-------------------------------------------------------------|
D|-------------------------------------------------------------|
A|-------------------------------------444------------------0--|
D|5555-777-9~--/121212--5555-7-5-7-9~-------5555-7777-4~--2----|

 x2
G|---------------------------------------|
D|---------------------------------------|
A|---------------------------------------|
D|55555555-777777777-22222222-44444444---|

 Chorus x1
G|------------------------------------------------------------------------------------------|
D|--------------------------12---------------------------7-----------7-4-4/7-4--------------|
A|-----------------------12----------------------------9---9-7-4444-------------------------|
D|77777777-/121212121212--------55555555-77777777-9999-------------------------555555555555-|

 Pause

G|---------------------------------------|
D|---------------------------------------|
A|---------------444------------------0--|
D|5555-7-5-7-9~-------5555-7777-4~--2----|


G|----------------------|
D|----------------------|
A|------2-0-------------|
D|5~--------4-2~--------|
Tap to rate this tab
 
# A B C D E F G H I J K L M N O P Q R S T U V W X Y Z