Song name
# A B C D E F G H I J K L M N O P Q R S T U V W X Y Z

The Morning Of - Heaven Or Hell tab

Artist: The Morning Of
Song: Heaven Or Hell
Album: The Way I Fell In
Tabbed By: Matthew Florio; myspace.com/mattflorio2
Email: Shempashland@yahoo.com

Hey Guys!
this is a simple tab for the song 'Heaven or Hell'.
As for now this is the chord progression. Eventually I will
add more guitar parts. There seems to be a few others but will
need more time. For now here are the chords.
Sounds great acoustic!
Enjoy

Standard Tuning

Intro
this is played twice
e|--0-0-0--3-0-------|
b|--3-3-3--3-3-------|
g|--0-0-0--0-0-------|
d|--0-2-2--0-2-------|
a|--2-3-2--2-2-------|
e|------0--3-0-------|

Verse
e|-0-------0-------0----|
b|-3-------3-------3----|
g|-0-------0-------0----|
d|-2-------2-------2----|
a|-2-------3-------2----|
e|-0---------------0----|
    'do ya feel the same.."

e|-3-------0-------0----|
b|-3-------3-------3----|
g|-0-------0-------0----|
d|-0-------2-------2----|
a|-2-------2-------3----|
e|-3-------0------------|
  'given it time but you.."

THIS IS BASICALLY THE FORMAT OF THE VERSE
Em* Cadd9 Em G Em 
*from the intro into the cadd9 in the verse

Chorus
e|--3--3--3-3--3--3--3---|
b|--3--3--3-3--3--3--3---|
g|--0--0--0-0--0--2--0---|
d|--0--0--2-2--2--0--2---|
a|--2--x--3-3--2--0--3---|
e|--3--2-------0--2------|

Intro them Verse

Bridge
*Aaron Marsh's Part
e|--3--3--3--3--3--3--3--3--3-3-3-3-3-3--|
b|--3--3--3--3--3--3--3--3--3-3-3-3-3-3--|
g|--0--2--0--2--0--0--0--2--2-0-0-0-0-2--|
d|--0--0--2--0--2--0--2--0--0-2-0-2-2-0--|
a|--2--0--2--0--3--2--2--0--0-3-2-3-2-0--|
e|--3--2--0--2-----3--0--2--2---3---0-2--|
   'here..'    'i pulled..''now if..' 
                            and
                           'If youre scared..'

Jessica's Bridge Part and also the breakdown part right after
e|--3--3--3--3--3-----|
b|--3--3--3--3--3-----|
g|--0--0--2--0--2-----|
d|--2--0--2--2--0-----|
a|--3--2--0--2--0-----|
e|-----3-----0--2-----|


Outro/Solo Part
e|--3--3--3--3--3-----|
b|--3--3--3--3--3-----|
g|--0--0--2--0--2-----|
d|--2--0--2--2--0-----|
a|--3--2--0--2--0-----|
e|-----3-----0--2-----|
Tap to rate this tab
 
# A B C D E F G H I J K L M N O P Q R S T U V W X Y Z