Song name
# A B C D E F G H I J K L M N O P Q R S T U V W X Y Z

The Morning Of - Tell Me Im Wrong tab

Artist: The Morning Of
Song: Tell Me Im Wrong
Album: The Way I Fell In
Tabbed By: Matt Florio myspace.com/mattflorio2
email: shempashland@yahoo.com


Tuning: Drop D

Intro
|---------------------|
|---------------------|
|---7--7--7--7---7--7-|
|---7--7--7--0---7--7-|
|---5--7--5--9---5--7-|
|---5--7-----9---5--7-|

Verse
*when you slide the note, slide toward 12th fret
|------14--------------------------------|
|---15/--------15/12--12/10--------------|
|----------------------------------------|
|---------------------------p12/14/16/14-|
|----------------------------------------|
|----------------------------------------|
"I hate the way.."

Chorus
|----------------------------------|
|----------------------------------|
|---------------4h6p4h6h7p6h7p6p4--|
|---11h12/14/19------------------7-|
|----------------------------------|
|----------------------------------|

|----------------------------------|
|----------------------------------|
|----------------h4--4-4-4---------|
|---11h12/14/19-7--h7-7-7-7h4------|
|----------------------------------|
|----------------------------------|

|----------------------------------|
|----------------------------------|
|---------------4h6p4h6h7p6h7p6p4--|
|---11h12/14/19------------------7-|
|----------------------------------|
|----------------------------------|

|---10p9-------7-------|
|-------10-7-10-10-----|
|----------------------|
|----------------------|
|----------------------|
|----------------------|

Bridge
|---------------------|
|-------5-------------|
|---7---6---7---7-----|
|---0---0---7---7-----|
|---9---7---5---5-----|
|---9---7---4---5-----|
"Oh Oh Oh..."
Tap to rate this tab
 
# A B C D E F G H I J K L M N O P Q R S T U V W X Y Z