Song name
# A B C D E F G H I J K L M N O P Q R S T U V W X Y Z

The Morning Of - Jennasea tab

Artist: The Morning Of
Song: Jennasea
Album: The Way I Fell In

I'm pretty sure this song is originally in half-step tuning, but I tabbed it out for standard.

Intro (When guitar comes in)
e) ------------------------------------------------|
B) ------6--4------------------6--4----------------|
G) ----6-------6-------------6-------6----s---s-p--|
D) --4--------------6------4-------------3-4-6-8-6-|
A) 4---------------------4-------------------------|
E) ------------------------------------------------|

e) -------------------------------------------------|
B) ------6--4------------------s-s------------------|
G) ----6-------6--------------5-6-5--s-h--6----8----|
D) --4--------------6---------------3-4-6-----------|
A) 4------------------------------------------------|
E) -------------------------------------------------|

e) -------------------------------------------------|
B) -------------------------------------------------|
G) 6------------------------------------------------|
D) -------------------------------------------------| Hold note until chorus
A) -------------------------------------------------|
E) -------------------------------------------------|

Chorus
e) --------------------------------------------------------|
B) -------p-----------p-------------------------------p----|
G) ------8-6---------8-6-------------6---------------8-6---|
D) 8---------6-4---------6---6---6-----6-----6---6-------6-| 2x
A) ------------------------4---4-----------4---4-----------|
E) --------------------------------------------------------|

e) -------------------------------------------------|
B) -------------------------------------------------|
G) 8------------------------------------------------| Hold note until
D) -------------------------------------------------| next guitar part
A) -------------------------------------------------|
E) -------------------------------------------------|

Verse - Repeat Intro Riff

Pre-Verse Fill
e) --------------|
B) -s-s----------|
G) 5-6-5--s-h--6-|
D) ------3-4-6---|
A) --------------|
E) --------------|

Verse - Repeat Intro Riff

Repeat Chorus 4x

Outro
e) ----------------------------------------|
B) -------p-----------p--------------------|
G) ------8-6---------8-6-------------------|
D) 8---------6-4---------6-----------------| 4x
A) ------------------------4---------------|
E) ----------------------------------------|

h = hammer on
p = pull off
s = slide

That's about it. Please rate.
Tap to rate this tab
 
# A B C D E F G H I J K L M N O P Q R S T U V W X Y Z