Song name
# A B C D E F G H I J K L M N O P Q R S T U V W X Y Z

The Most Serene Republic - Present Of Future End tab

		Present of Future End - The Most Serene Republic 

Tuning:Standard




e|----------------0---3-0----------------------0---3-0-----------------------|
B|-1---0---3----------------3---1---0---3----------------3-------------------|
G|---0---0---0--------------------0---0---0----------------------------------|
D|---------------------------------------------------------------------------|
A|---------------------------------------------------------------------------|
E|---------------------------------------------------------------------------|

e|-----------0-----------------------0---------------------------------------|
B|-1---0--------3~--------1---0----------3~----------------------------------|
G|---0---0------------------0---0--------------------------------------------|
D|---------------------------------------------------------------------------|
A|---------------------------------------------------------------------------|
E|---------------------------------------------------------------------------|

e|-----------------------0---3-0--------------------------------0---3-0------|
B|-1------0------3-----------------3---1------0------3--------------------3--|
G|---0------0------0----------------------0------0------0--------------------|
D|-----2------2------2-----------------------2------2------2-----------------|
A|---------------------------------------------------------------------------|
E|---------------------------------------------------------------------------|

e|------------------0------------------------------0-------------------------|
B|-1------0------------3~--------1------0-------------3~-----------------0~--|
G|---0------0----------------------0------0------------------------------0~--|
D|-----2------2----------------------2------2--------------------------------|
A|---------------------------------------------------------------------------|
E|---------------------------------------------------------------------------|


| /  slide up
| \  slide down
| h  hammer-on
| p  pull-off
| ~  vibrato
| +  harmonic
| x  Mute note
===============================================================================
Tap to rate this tab
 
# A B C D E F G H I J K L M N O P Q R S T U V W X Y Z