Guitaretab - guitar tabs
Song name
# A B C D E F G H I J K L M N O P Q R S T U V W X Y Z

The Motorettes - Super Heartbeats tab

I've never done any tabbing before but there isnt a single Motorettes tab on the web and 
an awsome band so I tabbed one of they're best songs for you miserable lot.

The tab is pretty rough but if you've heard the song it should give you a clue as how to play it.

Intro Riff x1
^=accents/(hit hard)(applies to the chord below it) >=hold chord
----------------------------------------------------------------|
---------------------------^------------------------------------|
---------------^-^-^-^-^-^-1->->->------------------------------|
-9-9-9->->->->-8-8-8-8-8-8-2->->->------------------------------|
-9-9-9->->->->-9-9-9-9-9-9-2->->->------------------------------|
-7-7-7->->->->-6-6-6-6-6-6-0->->->--------------6-6-6-6-6-6-6-7-|
(triplet,last note held)

Lead Riff During Verse
-14----------|
----12-11-12-|
-------------| x8 for each verse riff (not played in chorus
-------------|
-------------|
-------------|

Verse Riff
x2 before verse                                        x4 for the verse
-7-7-7-7-7-7-7-7--9--9--9--9--9--9--9--9-6-6-6-6-6-6-6-6-7-7-7-7-7-7-7-7-|
-7-7-7-7-7-7-7-7--9--9--9--9--9--9--9--9-6-6-6-6-6-6-6-6-7-7-7-7-7-7-7-7-|
-8-8-8-8-8-8-8-8--9--9--9--9--9--9--9--9-8-8-8-8-8-8-8-8-9-9-9-9-9-9-9-9-|
-9-9-9-9-9-9-9-9-11-11-11-11-11-11-11-11-8-8-8-8-8-8-8-8-9-9-9-9-9-9-9-9-|
-9-9-9-9-9-9-9-9-11-11-11-11-11-11-11-11-6-6-6-6-6-6-6-6-7-7-7-7-7-7-7-7-|
-7-7-7-7-7-7-7-7--9--9--9--9--9--9--9--9---------------------------------|

[ Tab from: http://www.guitaretab.com/t/the-motorettes/95850.html ]
Chorus Riff x 4
-----------------------------------------------------------------|
-----------------------------------------------------------------|
---------------------------------9-9-9-9-9-9-9-9-9-9-9-9-9-9-9-9-|
-9-9-9-9-9-9-9-9-8-8-8-8-8-8-8-8-9-9-9-9-9-9-9-9-9-9-9-9-9-9-9-9-|
-9-9-9-9-9-9-9-9-9-9-9-9-9-9-9-9-7-7-7-7-7-7-7-7-7-7-7-7-7-7-7-7-|
-7-7-7-7-7-7-7-7-6-6-6-6-6-6-6-6-0-0-0-0-0-0-0-0-0-0-0-0-0-0-0-0-|

(I couldn't find the lyrics anywhere on the web so I did my best to figure them out, I 
they're mostly right.)

(verse)
 Look at me Iím a message
Shooting at the stars all away from the gun
I promise I will leave you breathless
You say you will wear my heart till the end

I am doing cartwheels
I am on a light in the sky
You say we are on to something
Yes we are awake again

(chorus)
This (this) sound (this) sound (is) breaking up,
This time is for the taking
Turn me up and turn me on to this
Shit together we resist
So it is
And we kiss (kiss) kiss (kiss) kiss (kiss) kiss (kiss)
Turn me up and turn me on to this

(verse)
I have got a plan yeh
I have got a plan and I am gonna use it
Gonna get us outa this place
M m m m my, my hairs are on end

(verse)
I am super heartbeats
You are like a pilot, donít die
We all wanna we are restless
Yes we are awake again

(chorus)
This (this) sound (this) sound (is) breaking up,
This time is for the taking
Turn me up and turn me on to this
Shit together we resist
So it is
And we kiss (kiss) kiss (kiss) kiss (kiss) kiss (kiss)
Turn me up and turn me on to this

(verse)
Bo boo bah boo bah be bah
Bo boo bah boo bah be bah
Bo boo bah boo bah be bah
Bo boo bah boo bah be bah

(chorus)
This (this) sound (this) sound (is) breaking up,
This time is for the taking
Turn me up and turn me on to this
Shit together we resist
So it is
And we kiss (kiss) kiss (kiss) kiss (kiss) kiss (kiss)
Turn me up and turn me on to
Turn me up and turn me on to this.

corrections appreciated crazybeagle@hotmail.com
Related for Super Heartbeats tab