Song name
# A B C D E F G H I J K L M N O P Q R S T U V W X Y Z

The Motorettes - Heartstoping tab

-------------------------------------------------------------------------------
Heart...stop...ing - The Motorettes
-------------------------------------------------------------------------------
Tabbed by: L2wis
Email: Lewis_icon@hotmail.com
Msn: mail@darkskys.co.uk

Hey all! The Motorettes have such an amazing style I had to get a tab on here to go 
the super heartbeats tab! Here goes... it's not perfect by any means but i play it like 
Please comment with any suggestions!


Tuning: E Standard

Opening Note Goes straight into the verse when faded out:
e|-------------|
B|-------------|
G|-9>>>>>>-----|
D|-9>>>>>>-----|
A|-7>>>>>>-----|
E|-------------|

Verse riff (palm muted): x8
e|---------------------------------------------------------------------------|
B|---------------------------------------------------------------------------|
G|-9-9-9-9-9-9-9-9--8-8-8-8-8-8-8-8--6-6-6-6-6-6-6-6-------------------------|
D|-9-9-9-9-9-9-9-9--8-8-8-8-8-8-8-8--6-6-6-6-6-6-6-6--7-7-7-7-7-7-7-7--------|
A|-7-7-7-7-7-7-7-7--6-6-6-6-6-6-6-6--4-4-4-4-4-4-4-4--7-7-7-7-7-7-7-7--------|
E|----------------------------------------------------5-5-5-5-5-5-5-5--------|

Chorus riff (open) x 2
e|---------------------------------------------------------------------------|
B|---------------------------------------------------------------------------|
G|-9-9-9-9-9-9-9-9-9--13-13-13-13--11-11-11-11-------------------------------|
D|-9-9-9-9-9-9-9-9-9--13-13-13-13--11-11-11-11-------------------------------|
A|-7-7-7-7-7-7-7-7-7--11-11-11-11--9--9--9--9--------------------------------|
E|---------------------------------------------------------------------------|

Song order:

verse riff  x 8
chorus riff x 2
verse riff  x 6ish
chorus riff x 3
verse riff  x 2 (all palm muted apart from the last chord! 577xxx)
chorus till the end

note. You can easily work out where to put the double hit (loud) x799xx notes

enjoy!

| >  hold
| /  slide up
| \  slide down
| h  hammer-on
| p  pull-off
| ~  vibrato
| +  harmonic
| x  Mute note
===============================================================================
Tap to rate this tab
# A B C D E F G H I J K L M N O P Q R S T U V W X Y Z