Song name
# A B C D E F G H I J K L M N O P Q R S T U V W X Y Z

The Mouse And The Mask - Crosshairs tab

-------------------------------------------------------------------------------
		         CROSSHAIRS - Danger Doom
-------------------------------------------------------------------------------
Tabbed by:Sound Mind
Email:kagenecros@hotmail.com
link to the site: http://dangerdoom.com/

Tuning:Standard EADGBe

For those of you who don't know Danger Doom is the collaboration of MF Doom
and DJ Danger Mouse and a truly exceptionnal underground rap album.I was with
my teacher just screwing around and he found how to play this intro. He doesn't
go on tab sites so i decided to post it up for him, i think that he deserves to
be known by my fellow UG'ers.

e|---------------------------------------------------------------------------|
B|---------------------------------------------------------------------------|
G|---------------------------------------------------------------------------|
D|7-5-------------7-5-------------7-5-------------7-5------------------------|
A|----7-5-------------7-5-------------7-5-------------7-5--------------------|
E|--------8-5-3-----------8-5-3-----------8-5-3-----------8-5-3--------------|

e|--x-111--3--555------------------------------------------------------------|
B|--x-111--3--555------------------------------------------------------------|
G|--x-222--4--000------------------------------------------------------------|
D|--x-333--5--777-7-5--------------------------------------------------------|
A|--x-333--5--777-----7-5----------------------------------------------------|
E|1-x-111--3--555---------8-5-3----------------------------------------------|

e|--x-111--3--555------------------------------------------------------------|
B|--x-111--3--555------------------------------------------------------------|
G|--x-222--4--000------------------------------------------------------------|
D|--x-333--5--777------------------------------------------------------------|
A|--x-333--5--777------------------------------------------------------------|
E|1-x-111--3--555------------------------------------------------------------|

e|--x-111--3--555------------------------------------------------------------|
B|--x-111--3--555------------------------------------------------------------|
G|--x-222--4--000------------------------------------------------------------|
D|--x-333--5--777------------------------------------------------------------|
A|--x-333--5--777------------------------------------------------------------|
E|1-x-111--3--555------------------------------------------------------------|

That's it. A really cool song with a really cool and easy intro/main riff.
E-mail if you have any questions about how to play this.

| /  slide up
| \  slide down
| h  hammer-on
| p  pull-off
| ~  vibrato
| +  harmonic
| x  Mute note
===============================================================================
Tap to rate this tab
# A B C D E F G H I J K L M N O P Q R S T U V W X Y Z