Song name
# A B C D E F G H I J K L M N O P Q R S T U V W X Y Z

The Movement - Kind tab

Guitar 1

Repeat these chords throughout.
         E       G#m      F#m
E |------0--------4--------2-------------------------------|
B |------0--------4--------2-------------------------------|
G |------1--------4--------2-------------------------------|
D |------2--------6--------4-------------------------------|
A |------2--------6--------4-------------------------------|
E |------0--------4--------2-------------------------------|

Guitar 2

E|-12-12-12-12--12-12--------------------------------------|
B|--------------------12--12-12\---------------------------|
G|---------------------------------------------------------|
D|---------------------------------------------------------|
A|---------------------------------------------------------|
E|---------------------------------------------------------|

E|-------7-5h7p5-------------------------------------------|
B|-5-7-9---------------5-5--7-7/9--7h9p7p5--2-2/5----------|
G|---------------------------------------------------------|
D|---------------------------------------------------------|
A|---------------------------------------------------------|
E|---------------------------------------------------------|

(2nd guitar 2 part)

E|---12-12-12------------12\---------7-5~------------------|
B|--------------12-12-12-------5-7-9-----------------------|
G|---------------------------------------------------------|
D|---------------------------------------------------------|
A|---------------------------------------------------------|
E|---------------------------------------------------------|

E|------------------------------------7-5/9-7~---12\-------|
B|--5-5-7-7/9--7-7/9-5---2-2/5--5-7-9------------12\-------|
G|---------------------------------------------------------|
D|---------------------------------------------------------|
A|---------------------------------------------------------|
E|---------------------------------------------------------|

E|--12-7-7---7-9-7-7-9-7-7--7-12~--------------------------|
B|---------------------------------------------------------|
G|---------------------------------------------------------|
D|---------------------------------------------------------|
A|---------------------------------------------------------|
E|---------------------------------------------------------|
Tap to rate this tab
# A B C D E F G H I J K L M N O P Q R S T U V W X Y Z