Song name
# A B C D E F G H I J K L M N O P Q R S T U V W X Y Z

The Movement - Breathe tab

Tabbed by Joey
Song
Breathe
Artist
The Movement
Standard Tuning

Am G7 C6 C6

triplet swing, so 12
                   8

first part
E|------10----|-0-------00-|------10----|-0-------00-|
B|--------01--|-1----1--11-|--------01--|-1----1--11-|
G|--10--------|---------22-|--10--------|---------22-|
D|--2---------|---------22-|--2---------|---------22-|
A|0-----------|3-----3--33-|0-----------|3-----3--33-|
E|-----3------|------------|-----3------|------------|

sometimes he plays
E|------0-----|-0-------00-|------0-----|-0-------00-|
B|--------3---|-1----1--11-|--------3---|-1----1--11-|
G|--10--------|---------22-|--10--------|---------22-|
D|--2---------|---------22-|--2---------|---------22-|
A|0-----------|3-----3--33-|0-----------|3-----3--33-|
E|-----3------|------------|-----3------|------------|

At times before the chorus, he will strum C6 on straight
eighths then return to the first part. Listen to the song
for the changes and enjoy! Beautiful song, shame there is
no tab for it.
Tap to rate this tab
 
# A B C D E F G H I J K L M N O P Q R S T U V W X Y Z