Song name
# A B C D E F G H I J K L M N O P Q R S T U V W X Y Z

The Mowglis - San Francisco tab

-------------------------------------------------------------------------------
                             SAN FRANCISCO - The Mowgli's
-------------------------------------------------------------------------------

Song: San Francisco
Artist: The Mowgli's
Tabbed By: AzazelXXII

Great song, but I was only able to find chords for it, so I decided to try my hand at
making the tab for the non-chord sections. This covers the little guitar riff in the
intro, as well as the instrumental (brass) part in the break. Both parts should be 
relatively simple.

Tuning: Standard
No Capo


Intro:

e|-------------------------------------------------------------------------|
B|---------9---------------------------------------------------------------|
G|--8-8/11---11-8---------9-9p8-8-------------9-9p8-8----------8-----------|
D|----------------11-9-------------11-11-9-------------11-11-9---11-11-9-8-|
A|-------------------------------------------------------------------------|
E|-------------------------------------------------------------------------|


Instrumental Break:

e|-------------------------------------------|------------------------------------------------|
B|--------------7----------------7------7-9--|--------------7----------------7----7-9-9p7--9--|
G|--6/8--8p6--8---8p6--8--8p6--8---8---------|--6/8--8p6--8---8p6--8--8p6--8---8---------8----|
D|-------------------------------------------|------------------------------------------------|
A|-------------------------------------------|------------------------------------------------|
E|-------------------------------------------|------------------------------------------------|

e|-------------------------------------------|------------------------------------------------|
B|----7-9---7-9---7--9p7---9p7---9p7---9p7---|----7-9---7-9---7--9999999999999----------------|
G|--8-----8-----8-------8-----8-----8-----8--|--8-----8-----8---------------------------------|
D|-------------------------------------------|------------------------------------------------|
A|-------------------------------------------|------------------------------------------------|
E|-------------------------------------------|------------------------------------------------|

(/) slide up
(p) pull-off



And there you have it. This is my first tab, but it sounds pretty good to me. Hope you enjoy!
Tap to rate this tab
# A B C D E F G H I J K L M N O P Q R S T U V W X Y Z