Song name
# A B C D E F G H I J K L M N O P Q R S T U V W X Y Z

The Mowglis - Clean Light tab

Artist : The Mowgli's
Song   : "Clean Light"

Tuning : Eb Ab C# F#  Bb eb (Half-Step Down)
                            
                           *(If however you don't want to tune down to
                             a half-step, I'll include the chords and 
                             the tablature for Standard tuning at the 
                             bottom.)

Capo   : Nope

Tabbed By : Chester Abellera (^-^)




Chords : (Half-Step Tuning)
       
       F    Am   G    Dm   C    C/B
eb |--(0)---0----x----1----0----0---|     
Bb |---1----1----3----3----1----1---|     
F# |---2----2----0----2----0----0---|
C# |---3----2----0----0----2----0---|
Ab |---3----0----x---------3----2---|     
Eb |---1---------3------------------|




Intro : F  F  Am G (4x)

(The "whistle" part eb |--------------------| |------------------------|
played 2x before    Bb |---8---88---5-------| |---8---88---5-------5~~~|
the verse)          F# |----------------7~~~| |----------------7-------|
            ----->  C# |--------------------| |------------------------|
                    Ab |--------------------| |------------------------|
                    Eb |--------------------| |------------------------|


Verse     :  F  F  Am G
             F  F  Am C


                          "All you need to know,"
Pre-Chorus Riff :   eb |---|---|---|----|-/--| 
                    Bb |---|---|---|----|/---|
                    F# |---|---5---7----99~~~|
                    C# |---7-----------------|
                    Ab |---------------------|
                    Eb |---------------------|

                          "All we see now,"
                    eb |---|---|---|----|---| 
                    Bb |---|---|---|----|---|
                    F# |---|---5---10---9~~~|
                    C# |---7----------------|
                    Ab |--------------------|
                    Eb |--------------------|




Build     :  G


Chorus    :  F  F  Am G (4x)


Play the "whistle"  eb |--------------------| |------------------------|
part again before   Bb |---8---88---5-------| |---8---88---5-------5~~~|
the second verse    F# |----------------7~~~| |----------------7-------|
                    C# |--------------------| |------------------------|
                    Ab |--------------------| |------------------------|
                    Eb |--------------------| |------------------------|


From here we just cycle through what we just covered and repeat them :
* Verse
* Pre-Chorus Riff
* Build
* Chorus


Bridge     :  Dm  G   C -> C/B   Am
              Dm  G   C -> C/B   Dm

* Build
* Chorus

  End on C =)









* When The Mowgli's play the song live, 
  Dave Appelbaum (the dude on the keys) starts off
  while the others arpeggiate the chords.
  You can arpeggiate the chords in your own way
  or you can roughly try and mimic the piano 
  by playing this :

       F          F          Am         G
eb |--------------------------------------------0---|     
Bb |------1---1------1---1------1---1---------3-----|     
F# |----------------------------------------0-------|
C# |---3----------3----------0----------------------|
Ab |------------------------------------------------|     
Eb |------------------------------------3-----------|




_____________________________________________________________________________


Here's how to play the song in Standard Tuning :

Chords : (Standard Tuning)
       
      E   Abm   F#  C#m   B    B/Bb
e |---x----x----2----4-------------|     
B |---0----4----2----5----4----4---|     
G |---1----4----3----6----4----4---|
D |---2----6----4----6----4----4---|
A |---2----6----4----4----2----1---|     
E |---0----4----2------------------|




Intro : E   E   Abm   F# (4x)

(The "whistle" part e |--------------------| |------------------------|
played 2x before    B |---7---7---4--------| |---7---77---4-------4~~~|
the verse)          G |----------------6~~~| |----------------6-------|
            ----->  D |--------------------| |------------------------|
                    A |--------------------| |------------------------|
                    E |--------------------| |------------------------|


Verse     :  E   E   Abm   F#
             E   E   Abm   B


                          "All you need to know,"
Pre-Chorus Riff :   eb |---|---|---|----|-/--| 
                    Bb |---|---|---|----|/---|
                    F# |---|---4---6----88~~~|
                    C# |---6-----------------|
                    Ab |---------------------|
                    Eb |---------------------|

                          "All we see now,"
                    eb |---|---|---|----|---| 
                    Bb |---|---|---|----|---|
                    F# |---|---4---9----8~~~|
                    C# |---6----------------|
                    Ab |--------------------|
                    Eb |--------------------|




Build     :  F#


Chorus    :  E   E   Abm   F# (4x)


Play the "whistle"  eb |--------------------| |------------------------|
part again before   Bb |---7---77---4-------| |---7---77---4-------4~~~|
the second verse    F# |----------------6~~~| |----------------6-------|
                    C# |--------------------| |------------------------|
                    Ab |--------------------| |------------------------|
                    Eb |--------------------| |------------------------|


From here we just cycle through what we just covered and repeat them :
* Verse
* Pre-Chorus Riff
* Build
* Chorus


Bridge     :  C#m  F#   B -> B/Bb   Am
              C#m  F#   B -> B/Bb   C#m

* Build
* Chorus

  End on B =)









* When The Mowgli's play the song live, 
  Dave Appelbaum (the dude on the keys) starts off
  while the others arpeggiate the chords.
  You can try and mimic it by playing this :

       E          E          Abm        F#
eb |------------------------------------------------|     
Bb |------0---0------0---0------0---0-----------2---|     
F# |------------------------------------------3-----|
C# |---2----------2-------------------------4-------|
Ab |------------------------------------------------|     
Eb |-------------------------4----------2-----------|
Tap to rate this tab
# A B C D E F G H I J K L M N O P Q R S T U V W X Y Z