Song name
# A B C D E F G H I J K L M N O P Q R S T U V W X Y Z

The Muggs - Shouldve Learned My Lesson tab

good band and good song
intro uses a slide
I think he puts the slide on his pinky but i put it on my ring finger so i still 
can use the other 2

Intro:
e|--------------------|
B|-0--5-0--s12--------|
G|-0--5-0--s12--------|
D|--------------------|8x
A|--------------------|
E|--------------------|

e|--------------------|
B|-0-3-0-s5-----------|
G|-0-3-0-s5-----------|
D|--------------------| 
A|--------------------|
E|--------------------|

Main Riff:
e|------------------------------------------------|
G|------------------------------------------------|
D|-5-3-5-3-------------5---5-3-5-3----------------|2x
A|---------5-4-3-3-5---------------5-4-3-3-5------|
E|-------------------6-----------------------6-3--|

G5                            C5                     Main Riff
Should've learned my lesson, my baby's come and gone,
C5                                                   Main Riff
Should've learned my lesson, my baby's come and gone,
D5                          C#5                                   
Should've known the difference, 
C5                                    Main Riff 2x
between what's right and what's wrong.

G5                            C5                      Main Riff
Should've count my blessings, before I left that town,
C5                                                    Main Riff
Should've count my blessings, before I left that town,
D5                     C#5  C5                          Main Riff 2x
Should've known the better, before you strung me around.

G5                F5               G5

Slide solo (try to tab it later)

e|---------------------|
B|---------------------|
G|---------------------|
D|-----5-3---3---------|4x
A|---------5------3----|
E|--3----------------6-|

G5                         Bb5 C5                      Main Riff
Should've learned my lesson,   my baby's come and gone,
C5                         Bb5 C5                      Main Riff
Should've learned my lesson,   my baby's come and gone,
D5                     C#5  C5                  
Should've known the better, before you strung me along 

e|---------------------|
B|---------------------|
G|---------------------|
D|-----5-3---3---------|4x
A|---------5------3----|
E|--3----------------6-|


G5                F5               G5

Solo again


e|--------------------|
B|-0--5-0--s12--------|
G|-0--5-0--s12--------|
D|--------------------|10x
A|--------------------|
E|--------------------|


The Muggs' Website:
www.themuggs.com
Tap to rate this tab
 
# A B C D E F G H I J K L M N O P Q R S T U V W X Y Z