Song name
# A B C D E F G H I J K L M N O P Q R S T U V W X Y Z

The Mummies - You Must Fight To Live On The Planet Of The Apes tab

Funny and easy song by the kings of budget rock.

Intro:

e-------------------------------------------|
b-------------------------------------------|
g---------------------------------5-7-5-7~--|
d--999999999999999999999999999--------------|
a--999999999999999999999999999--------------|
e--777777777777777777777777777--------------|

Verse:

e------------|
b------------|
g------------|
d--9--5-5--9-| …Play a whole bunch of times
a--9--5-5--9-|
e--7--3-3--7-|

Chorus:

e----------------------|
b----------------------|
g--7-777777--5-555555--|
d--7-777777--5-555555--| X3
a--5-555555--3-333333--|
e----------------------|

Bridge:

e----------------------|
b----------------------|
g--4---6---------------|
d--4---6---------------|
a--2---4---------------|
e----------------------|

Song Structure:

Intro
Verse
Chorus
Verse
Chorus
Bridge
Solo
Verse
Chorus

http://www.themummies.com/
Tap to rate this tab
 
# A B C D E F G H I J K L M N O P Q R S T U V W X Y Z