Song name
# A B C D E F G H I J K L M N O P Q R S T U V W X Y Z

The Murder Of Rosa Luxembourg - Venezuela Is Realised tab

The Murder of Rosa Luxemburg - Venezuela is Realised
====================================================


Off the album "Everyone is in Love and Flowers Pick Themselves"

----> tabbed by the bass playing sheep <----   (sheep611@gmail.com)

I know it's not 100%, but its better than nothing 



standard tuning

... - very slight palm mute
/\  - slide

h/p - hammer/ pull

Mild distortion on both guitars:

Guitar 1 - 'rythm' - left channel
Guitar 2 - 'lead   - Right channel


Intro:


e|---------------------------------------------|
B|---------------------------------------------|
G|---------------------------------------------| guitar 1
D|-00----00----00----00----00----00----0---0---|
A|-55----55----55----55----55----55----5---5---|
E|---------------------------------------------|
 |                                             |
 |                                             |
e|---------------------------------------------|
B|---------------------------------------------|
G|---------------------------------------------| guitar 2
D|----77----77----77----77----77----77---7---7-|
A|---------------------------------------------|
E|---------------------------------------------|



Part 1:

                            x3
e|----------------------------|
B|----------------------------|
G|----------------------------|
D|-00----00------00----00-----|
A|-55----55------55----55-----|
E|----------------------------|
 |                            |
 |                            |
e|----------------------------|
B|---------1010----------1010-|
G|----------------------------|
D|----77---7-7-----77-----7-7-|
A|----------------------------|
E|----------------------------|


Part 2:
                               x1                                 x7
e|------------------------------|   |------------------------------|
B|------------------------------|   |------------------------------|
G|-----4/5----4/5----7/5----7/9-|   |-----4/5----4/5----7/5----7/9-|
D|--00-----00-----00-----00-----|   |--00-----00-----00-----00-----|
A|------------------------------|   |------------------------------|these sound so awesome together
E|------------------------------|   |------------------------------|
 |                              |   |                              |
 |                              |   |                              |
e|------------------------------|   |------------------------------|
B|------------12/---------------|   |------------12/---------------|
G|2450-5/7-----------7/9-0--7/9-|   |-540-5/7-----------7/9-0--7/9-|
D|--------9--------9------------|   |--------9--------9------------|
A|------------------------------|   |------------------------------|
E|------------------------------|   |------------------------------|


Part 3: (turn the distortion up a bit from here until the end)

                x4
e|---------------|------------------------|
B|--------7------|-------7-----------7----|
G|---------------|------------------------|
D|----6-9----8-6-|---6-9--8-6----6-9--8-6-|
A|---------------|-------------00---------|
E|-7-7-----------|-77---------------------|
 |                                        |
 |                                        |
e|---------------|------------------------|
B|---------------|------------------------|
G|------9-11-----|------------------------|
D|-----------8-9-|------------------------|
A|---------------|-7--7--7--7--7--7--7--7-|
E|-7-77----------|-5--5--5--5--5--5--5--5-|
   ....            ......................

Part 4:
                            repeat as many times as needed
e|----------------------------|
B|----------------------------|
G|----------------------------|
D|-00----00------00----00-----|
A|-55----55------55----55-----|
E|----------------------------|
 |                            |
 |                            |
e|----------------------------|
B|---------1010----------1010-|
G|----------------------------|
D|----77---7-7-----77-----7-7-|
A|----------------------------|
E|----------------------------|


break 1:
             x4
e|------------|
B|------------|
G|-8-8-8-88-8-| both guitars, maybe the one
D|-7-7-7-77-7-|
A|------------|
E|------------|
   ..........


break 2:
                   x4
e|------------------|
B|------------------|
G|-8--8--8--8-8--8--| 
D|-7--7--7--7-7--7--|
A|------------------| guitar 1
E|------------------|
 |                  |
 |                  |
e|-11-11-11-1111-11-|
B|-10-10-10-1010-10-| guitar 2
G|------------------|
D|------------------|
A|------------------|
E|------------------|


Outro: (both guitars play the same thing until the song ends)
  
                                                 x4
e|-------------------------------------------------|
B|-------------------------------------------------|
G|-------------------------------------------------| 
D|------2h3p2h3p2------2h3p2h3p2-------------------|
A|-------------------------------33-3-333-22-2-222-|
E|-00-3-----------00-3-----------------------------|

              x2
e|-------------|
B|101010101010-|
G|-8-8-8-88-8--| slight palm mute
D|-7-7-7-77-7--|
A|-------------|
E|-------------|

                                                  
e|-------------------------------------------------|
B|-------------------------------------------------|
G|-------------------------------------------------| <-- repeat this till fade
D|------2h3p2h3p2------2h3p2h3p2-------------------|
A|-------------------------------33-3-333-22-2-222-|
E|-00-3-----------00-3-----------------------------|

That's it, enjoy!
Tap to rate this tab
# A B C D E F G H I J K L M N O P Q R S T U V W X Y Z