Song name
# A B C D E F G H I J K L M N O P Q R S T U V W X Y Z

The Murdocks - Saddest Star tab

http://www.the-murdocks.com/

Intro/Verse
E|--------------------|-------------------------------------------|
B|--------------------|-------------------------------------------|
G|--------------------|----------5--------------------------------|
D|--------------------|---------5--5------5--------7--------5-----|
A|--3333--------------|-------3----------5--5-----7--7-----5--5---|
E|----------1111-3333-|-----------------3--------5--------3-------|
   Part 1 4x              Part 2 1x


As Chords for 3rd Verse

E|------------|
B|------------|
G|--5---------|
D|--5--3--7---|
A|--3--3--7---|
E|-----1--5---|


Going into chorus

E|--------------|
B|--------------|
G|--------------|
D|--55555-------|
A|--55555-------|
E|--33333-------|

Chorus

E|------------------------------------------|-----------------------|
B|------------------------------------------|-----------------------|
G|--55555555--------------------------------|-----------------------|
D|--55555555---3333333--77777777--55555555--|--77777777-55555555----|
A|--33333333---3333333--77777777--55555555--|--77777777-55555555----|
E|-------------1111111--55555555--33333333--|--55555555-33333333----|  (You'll hear 
slide between A and G on occasion)
           2x					1x

Second Time on chorus, play a dead note during the G


Solo Lead
 (Those are 10's, and make sure you pick them very fast to get the effect)
Listen to it to get the  number of times
E|--------------------------------------------------------------|
B|--------------------------------------------------------------|
G|--------------------------------------------------------------|
D|--5-7-9-10101010101010101010/12-------------------------------|
A|--------------------------------------------------------------|
E|--------------------------------------------------------------|

Solo Rhythm

E|---------------|
B|---------------|
G|--55555555555--|
D|--55555555555--|
A|--33333333333--|
E|---------------|

Order

Verse
Pre-Chorus
Chorus
Intro/Verse (No Play first part, then no guitar, then come in with part 2)
Pre-Chorus
Chorus again
Solo
Verse (At first no guitar, then play chords, then part 2 of intro, then pre-chorus)
Chorus
End on

E|-------------|
B|-------------|
G|--5~ --------|
D|--5~ --------|
A|--3~ --------|
E|-------------|
Tap to rate this tab
 
# A B C D E F G H I J K L M N O P Q R S T U V W X Y Z