Song name
# A B C D E F G H I J K L M N O P Q R S T U V W X Y Z

The Murdocks - Da Da tab

I believe this tab is perfect, but if any changes, e-mail 'em to At245am@aol.com
 Thanks.  Happy playing.

Intro/Verse

E|-----------|
B|-----------|
G|--7--------|
D|--7-4/5-7--|
A|--5-4/5-7--|
E|----2/3-5--|

Chorus (Da Da Da Da Da Da)

E|------|
B|------|
G|------|
D|---7--|
A|---7--|
E|---5--|

Yes I'm Awake...

E|--------------|
B|--------------|
G|--7---/9------|
D|--7--7/9--4---|
A|--5--7/7--4---|
E|-----5/---2---|

So kill me now, I'll be alright...
                      Play this until   Last time this part is played,
                         the verse      play the D for half the time then
E|----------------------|--------------|----------------------------------|
B|--------------------|----------------|----------------------------------|
G|--7-------11--9-----|------------7---|--4-------------------------------|
D|--7--7----11--9--9--|------------7---|--4-------------------------------|
A|--5--7----9---7--9--|------------5---|--2-------------------------------|
E|-----5-----------7--|----------------|----------------------------------|



Outro (Da Da...where he slowly builds up to screaming it)

E|------------------------|
B|------------------------|
G|-----7--9--------7--9*--|
D|--7--7--9--4--7--7--9*--|   *=Play until song ends.
A|--7--5--7--4--7--5--7*--|
E|--5--------2--5---------|
Tap to rate this tab
# A B C D E F G H I J K L M N O P Q R S T U V W X Y Z