Song name
# A B C D E F G H I J K L M N O P Q R S T U V W X Y Z

The Music - Into The Night tab

Help us improve GuitareTab! Take a short survey!
VERSE 1 (X6)
||------------------------|
||------------------------|
||---5-------7---9--------|
||-3-----5-5---7----------|
||-----3------------------|
||------------------------|

CHORUS
|-----------------------|-----------------------|
|-----------------------|-----------------------|
|---5-------7---9----5--|---5-------7---9----12-|
|-3-----5-5---7---(3)---|-3-----5-5---7---10----|
|-----3-----------------|-----3-----------------|
|-----------------------|-----------------------|

|----------------------------------------------------------------|
|----------------------------------------------------------------|
|---5-------7---9----5-/-12----10----9----9-9/10-9----12-10-9----|
|-3-----5-5---7---(3)-------10----10---10----------10---------10-|
|-----3----------------------------------------------------------|
|----------------------------------------------------------------|

VERSE 2 (X2)
|------------------------|
|------------------------|
|---5-------7---9--------|
|-3-----5-5---7----------|
|-----3------------------|
|------------------------|

-RIFF- (X4)
|-13-12-10------------13-12-10---------|
|----------12-13-(13)----------13-(13)-|
|--------------------------------------|
|--------------------------------------|
|--------------------------------------|
|--------------------------------------|

CHORUS (X2)
|-----------------------|-----------------------|
|-----------------------|-----------------------|
|---5-------7---9----5--|---5-------7---9----12-|
|-3-----5-5---7---(3)---|-3-----5-5---7---10----|
|-----3-----------------|-----3-----------------|
|-----------------------|-----------------------|

|----------------------------------------------------------------|
|----------------------------------------------------------------|
|---5-------7---9----5-/-12----10----9----9-9/10-9----12-10-9----|
|-3-----5-5---7---(3)-------10----10---10----------10---------10-|
|-----3----------------------------------------------------------|
|----------------------------------------------------------------|

INTER
|---------------------|-----------------------------|
|---------------------|-----8-------6-5-------------|
|---9-------7-5---7-5-|---9---9-----------7-5---7-5-|
|-7-----5-5-----5-----|-7---------5-----5-----5-----|
|-----3---------------|---------3-------------------|
|---------------------|-----------------------------|

|---------------------------|    |----------------------------|
|---------------------------|    |----------------------------|
|-5-/-7-/-9-/-5-/-7-/-9-/-7-| X3 |-5-/-7-/-9-/-10-/-9-/-7-/-9-| X1
|-3-/-5-/-7-/-3-/-5-/-7-/-5-|    |-3-/-5-/-7-/-10-/-9-/-7-/-9-|
|---------------------------|    |----------------------------|
|---------------------------|    |----------------------------|

CHORUS (X2)
|-----------------------|-----------------------|
|-----------------------|-----------------------|
|---5-------7---9----5--|---5-------7---9----12-|
|-3-----5-5---7---(3)---|-3-----5-5---7---10----|
|-----3-----------------|-----3-----------------|
|-----------------------|-----------------------|

|----------------------------------------------------------------|
|----------------------------------------------------------------|
|---5-------7---9----5-/-12----10----9----9-9/10-9----12-10-9----|
|-3-----5-5---7---(3)-------10----10---10----------10---------10-|
|-----3----------------------------------------------------------|
|----------------------------------------------------------------|

FINAL CHORUS
|-----------------------|-----------------------|
|-----------------------|-----------------------|
|---5-------7---9----5--|---5-------7---9----12-|
|-3-----5-5---7---(3)---|-3-----5-5---7---10----|
|-----3-----------------|-----3-----------------|
|-----------------------|-----------------------|

|----------------------------------------------------------------
|----------------------------------------------------------------
|---5-------7---9----5-/-12----10----9----9-9/10-9----12-10-9----
|-3-----5-5---7---(3)-------10----10---10----------10---------10-
|-----3----------------------------------------------------------
|----------------------------------------------------------------

-----------------------------------------|
-----------------------------------------|
-12----10----9----9-9/10-9----12-10-9----|
----10----10---10----------10---------10-|
-----------------------------------------|
-----------------------------------------|

END
|---------------------||
|---------------------||
|---9-------7-5---7-5-||
|-7-----5-5-----5-----||
|-----3---------------||
|---------------------||
Related for Into The Night tab