Song name
# A B C D E F G H I J K L M N O P Q R S T U V W X Y Z

The Music - No Weapon Sharper Than A Will tab

Track 10 off Strength In Numbers

Guitar parts for The Music are hard to discern on this album as I am sure you are aware 
you are a fan.

This is the best I can come up with at the moment.

Feel free to add and modify...


                    No Weapon Sharper Than A Will


                                                                           The Music


The Bass Intro/Verse is the following and the guitar just mirrors it in the chorus with 
of overdrive


     E   E  E   E  E  E  Q       E   E  E   E  E  E  Q
G||---------------------------|---------------------------|
D||---------------------------|---------------------------|
A||---------------------------|---------------------------|
E||--7--10--7--10--0--5--7----|--7--10--7--10--0--5--7----|


  E   E  E   E  E  E  Q
---------------------------||
---------------------------||
---------------------------||
--7--10--7--10--0--5--7----||


At about 27 seconds a guitar comes in but it is hard to make out each exact note, this 
what I have so far, I do not think it's perfect but it is has the right tonality... It is 
much the bass part with some sustain...

This part repeats before all chorus sections...


Guitar Overlay


   E    E    E  E   E  E  E  E
|-------------------------------|
|-------------------------------|
|-------------------------------|
|-------------------------------|
|-------------------------------|
|--2s~--5~--10--7--10--7--5--7--|


   E  E   E  E  E  E   E  E
-----------------------------||
-----------------------------||
-----------------------------||
-----------------------------||
-----------------------------||
--10--7--10--7--5--7--10--7--||


This is the chorus riff for the guitar

      E  E  E  E  E  E  E  E     E  E  E  E  E  E  E  E
E||---------------------------|--------------------------|
B||---------------------------|--------------------------|
G||*--------------7-----------|--------------7-----------|
D||*--9--9--9--9--7--9--7--9--|--9--9--9--9--7--9--7--9--|
A||---9--9--9--9--5--9--7--9--|--9--9--9--9--5--9--7--9--|
E||---7--7--7--7-----7--5--7--|--7--7--7--7-----7--5--7--|


  E  E  E  E  E  E  E  E     E  E  E  E  E  E  E  E
--------------------------|----------------------------||
--------------------------|----------------------------||
--------------7-----------|--------------------------*-||
--9--9--9--9--7--9--7--9--|--9--9--9--9--7--7--4--4--*-||
--9--9--9--9--5--9--7--9--|--9--9--9--9--7--7--4--4----||
--7--7--7--7-----7--5--7--|--7--7--7--7--5--5--2--2----||

The Lead Guitar Fill/Solo at about 2:13 goes something like this:


     S  S  S  S  S  S  S  S  S  S  S  S  S  S  S  S
E||--------------------------------------------------|
B||--9b-Lb-9b-Lb-9b-Lb-9b-Lb-8b-Lb-8b-Lb-7b-Lb-7b-Lb-| L= Tied Note
G||--------------------------------------------------| b= bend quarter note
D||--------------------------------------------------| here
A||--------------------------------------------------|
E||--------------------------------------------------|


  E  E  E  E  E  E  E  E     Q     Q     Q     Q
--------------------------|--------------------------||
--------------------------|--------------------------||
--------------------------|--------------------------||
--9--9--9--9--9--9--9--9--|--9b----9b----9b----9b----|| Bend half step
--------------------------|--------------------------|| then full step
--------------------------|--------------------------||

The Outro part goes like this:

      Q     Q    Q    Q        Q     Q    Q    Q        Q     Q    Q   Q
E||------------------------|------------------------|-----------------------|
B||------------------------|------------------------|-----------------------|
G||------------------------|------------------------|-----------------------|
D||--12----11----L----r----|--12----11----L----r----|--12----11----L---r----|
A||------------------------|------------------------|-----------------------|
E||------------------------|------------------------|-----------------------|


   Q     Q    Q     Q
-------------------------||
-------------------------||
-------------------------|| L = a tied note. Let those elevens ring out too
--12----11----7s----9----|| r = rest
-------------------------||
-------------------------||

Thanks guys enjoy!

The Music rock and have fun playing!

This is my second tab... my first was of Middle of Nowhere their b-side acoustic song - 
- check it out!!

Please rate...

Musk.
Tap to rate this tab
 
# A B C D E F G H I J K L M N O P Q R S T U V W X Y Z