Song name
# A B C D E F G H I J K L M N O P Q R S T U V W X Y Z

The Music - Take The Long Road And Walk It tab

Take The Long Road & Walk It by The Music	

Not difficult to figure out, but it's really really cool
how Adam Nutter uses no chords and just plays single string 
stuff...Check more of their other stuff out. 
Uh... here's just a bunch of riffs they're in order, but 
same parts are played at different times so figure it out..

Comments and Corrections to darc_blade@hotmail.com....
 
Riff 1 - (0:00 - 0:52), (1:09 - 1:36)

E|-------------------------|
B|-------------------------|
G|-------------------------|
D|---7-5h7-7-7-5---2p0-----|
A|-0-0-0-0-0-0-0-------3p0-|
E|-------------------------|

Riff 2 - (0:52 - 1:09), (1:36 - 1:52), (3:46 - 3:55)

E|---------------------|
B|---------------------|
G|-----------5---7p5---|
D|---7-5h7-7---7-----7-|
A|-0-0-0-0-0-----------|
E|---------------------|

Riff 3 - (1:52 - 2:10)

E|---------------------|
B|---------------------|
G|-----------5-7-b7-5--|
D|---7-5h7-7---------7-|
A|-0-0-0-0-0-----------|
E|---------------------|

Riff 4 - (2:10 - 2:36), (3:12 -	3:38)

E|-----------10/13/12-|
B|-10/13/12--x---x-x--|
G|-x---x-x---7-/10/9--|
D|-7-/10/9---0--0--0--|
A|-0--0--0------------|
E|--------------------|

Riff 5 - (2:36 - 2:56) 

E|---------------|
B|---------------|
G|--------5-7-b7-|
D|---7--7--------|
A|-0-0--0--------|
E|---------------|

Riff 6 - (2:56 - 3:12) 

E|-----------------|
B|------------9/10-|
G|--------5-7------|
D|---7--7----------|
A|-0-0--0----------|
E|-----------------|

Riff 7 - (3:12 - 3:46)

E|-------------------------------------------------------------------|
B|-------------------------------------------------------------------|
G|-------------------------------------------------------------------|
D|-7/10/7/10/7/5/7--7/10/7/10/7/5/7--7/10/7/10/7/10/7/10/7/10/7/10/7-|
A|-0-0-0--0--0-0-0--0-0-0--0--0-0-0--0-0--0-0-0--0-0-0--0-0-0--0-0-0-|
E|-------------------------------------------------------------------|

Order of Riffs 
Riff 1 
Riff 2
Riff 1
Riff 2
Riff 5
Riff 6
Riff 4
Riff 5
Riff 6
Riff 4
Riff 7 
Riff 5/6
Riff 7
Tap to rate this tab
# A B C D E F G H I J K L M N O P Q R S T U V W X Y Z