Song name
# A B C D E F G H I J K L M N O P Q R S T U V W X Y Z

The Music - Jag Tune tab

-------------------------------------------------------------------------------
			    Jag Tune - The Music
-------------------------------------------------------------------------------

Tabbed by:DasPop
Email:schep_vreugde_en_leef@hotmail.com

standard tuning

intro and main riff 
e|-----------------------------------------------|
B|-----------0-0------------0-0------------0-0---|
G|-9-9-7-7-7-0-0--9-9-7-7-7-0-0--9-9-7-7-7-0-0---|
D|-9-9-7-7-7-0-0--9-9-7-7-7-0-0--9-9-7-7-7-0-0---| x?
A|-7-7-5-5-5-5-5--7-7-5-5-5-5-5--7-7-5-5-5-5-5---|
E|-----------------------------------------------|

chorus
main riff + 
e|-12-10-10-7-7-7--12-10-10-7-7-7----------------|
B|-12-10-10-8-8-8--12-10-10-8-8-8----------------|
G|-----------------------------------------------|
D|-----------------------------------------------| x?
A|-----------------------------------------------|
E|-----------------------------------------------|

bridge
e|-----------------------------------------------|
B|-----------------------------------------------|
G|---------------------7---------------------7---|
D|-----9---7---9---7h9-------9---7---9---7h9-----| x?
A|-0-0---0---0---0-------0-0---0---0---0---------|
E|-----------------------------------------------|

good luck with it
(nog is bedankt voor het cd'ke leonard!!)
Fropsköttl rocks!!!! And The Music to!!!!
Tap to rate this tab
# A B C D E F G H I J K L M N O P Q R S T U V W X Y Z