Song name
# A B C D E F G H I J K L M N O P Q R S T U V W X Y Z

The Music - New Instrumental tab

The Music
New Instrumental

(A)
|-12-10h12----------------------------|
|----------13-12-12-------------------|
|-------------------14h16-12h14-------|
|-------------------------------------|
|-------------------------------------|
|-------------------------------------|

(B)
|---8--8--7--7--7----8--8--7--7--7----|
|-10-10-10-10-10---10-10-10-10-10-----|
|-------------------------------------|
|-------------------------------------|
|-------------------------------------|
|-------------------------------------|

|---8--8--7--7--7----8--8--10--10--10-|
|-10-10-10-10-10---10-10-10--10--10---|
|-------------------------------------|
|-------------------------------------|
|-------------------------------------|
|-------------------------------------|

(C)
|-12-10h12-12-----10-----17-----15----|
|-------------------------------------|
|-------------------------------------|
|-------------------------------------|
|-------------------------------------|
|-------------------------------------|

(D)
|-------------------------------------|
|----------------13-12-11h12----------|
|-11-12-11-12-11-------------11-------|
|-------------------------------------|
|-------------------------------------|
|-------------------------------------|
Tap to rate this tab
# A B C D E F G H I J K L M N O P Q R S T U V W X Y Z