Song name
# A B C D E F G H I J K L M N O P Q R S T U V W X Y Z

The Music - Bleed From Within tab

Intro for Bleedin from within by the Music

Tabbed by: mark_newcastle (1st tab)

Standard Tuning

e,B,G,D,A,E

Intro/Verse 1

e-0-0-0-----------0-0-0-3-3-3-3-2-|
B-------3-3-3-2-3-----------------|
G---------------------------------|  (x8)
D---------------------------------|
A---------------------------------|
E---------------------------------|

Until guitar solo then resume at Verse 2:

Verse 2

e-0-0-0-----------0-0-0-3-3-3-3-2-|
B-------3-3-3-2-3-----------------|
G---------------------------------|  (x8)
D---------------------------------|
A---------------------------------|
E---------------------------------|


Queries? email me at mark_newcastle@hotmail.com
Tap to rate this tab
 
# A B C D E F G H I J K L M N O P Q R S T U V W X Y Z