Song name
# A B C D E F G H I J K L M N O P Q R S T U V W X Y Z

The Music - One Way In No Way Out tab

I gave you the intro. Now i give you th whole song. Its not th exact tabs but its the 
idea of the song.

INTRO:
e)-------------------------------------------------------|
B)-------------------------------------------------------|
G)-------------------------------------------------------|
D)-----10-9-----10-9-------------------------------------|
A)-------------------------------------------------------|
E)8-10-----8-10------------------------------------------|

VERSE:
e)------------------------------------------|
B)------------------------------------------|(its basicly it)
G)------------------------------------------|
D)10-12121212-12b13b12-10-12121212-12/9/10--|
A)10-12121212----------10-12121212----------|
E)8--10101010----------8--10101010----------| X2

CHORUS:
e)------------------------------------------------|
B)------------------------------------------------|
G)------------------------------------------------|
D)10/1212121212121212/1010101010101010101010101010/
A)10/1212121212121212/1010101010101010101010101010/    (the timings may be
E)-8/1010101010101010/-8-8-8-8-8-8-8-8-8-8-8-8-8-8/     wrong but you get
                                                        the basic jist)
e)-----------------------------------------------------|
B)-----------------------------------------------------|
G)-----------------------------------------------------|
D)151515151515151515151515/1010101010101010101010101010
A)151515151515151515151515/1010101010101010101010101010
E)131313131313131313131313/-8-8-8-8-8-8-8-8-8-8-8-8-8-8   all chorus: x2


OUTRO:

Just improvise around the intro, its not th hard. use alot of slides and stuff. I may 
be the most technical wording person in the world, but this is how i play it and it sounds fine.
Lastly i would like to say that this is off one the best albums ever made.
Tap to rate this tab
 
# A B C D E F G H I J K L M N O P Q R S T U V W X Y Z