Guitaretab - guitar tabs
Song name
# A B C D E F G H I J K L M N O P Q R S T U V W X Y Z

The Music - Walls Get Smaller tab

This band is awsome, thanks to ma brother who got me into them.
tabbed by robert (bibster94@hotmail.co.uk)

(x12)
|-------------------------------------------------------------|
|-------------------------------------------------------------|(x12)
|--10--9--7--5---2--------------------------------------------|
|-0--0--0--0--------------------------------------------------|
|-------------------------------------------------------------|
|-------------------------------------------------------------|

|-------------------------------------------------------------|
|-------------------------------------------------------------|(x2)
|--3-2-3-2-3-2-3-2-3-2--2--2--2-2--2--2-----------------------|
|-0---0---0---0---0---0--0--0----0--0-------------------------|
|----------------------3--3--3-3--3--3------------------------|
|-------------------------------------------------------------|

the second guitar then comes in playing the top bit.

[ Tab from: http://www.guitaretab.com/t/the-music/78346.html ]
|-------------------------------------------------------------|
|-------------------------------------------------------------|(x3)
|--15-14-12-10-9----------------------------------------------|
|-0--0--0--0--0-----------------------------------------------|
|-------------------------------------------------------------|
|-------------------------------------------------------------|


|-------------------------------------------------------------|
|-----------------------6-5-6-5-6-5-6-5-6-5-------------------|
|--7-5-7-5-7-5-7-5-7-5-5---5---5---5---5----------------------|
|-0---0---0---0---0-------------------------------------------|
|-------------------------------------------------------------|
|-------------------------------------------------------------|

this is when the drums come in, play each note about 12 times.

|-------------------------------------------------------------|
|-------------------------------------------------------------|
|-------------------------------------------------------------|
|-7-----9-----10----12-----14-----17-----19-----21-----22-----|
|-5-x12-7-x12-8-x12-10-x12-12-x12-15-x12-17-x12-19-x12-20-----|
|-------------------------------------------------------------|

then the main part tune starts again. so just repeat the same parts as above.There are 
played over the last bit I think, but this is mainly just the lead guitar tab.
Related for Walls Get Smaller tab
Advertisement will be closed in 10 seconds