Song name
# A B C D E F G H I J K L M N O P Q R S T U V W X Y Z

The Myriad - A Clean Shot tab

This is not a brilliant tab, but its close enough to work from.

I havent seen any tabs of this song yet so I hope this pleases the majority.


Intro/Verse

E|--5--8--x-8--x--5---------------8--8--|
B|--6--10-x-10-x--5---------------8--8--|
G|--7--9--x-9--x--5----5----------9--9--|
D|--7-------------7----------7----10-10-|
A|--5-------------7--7------------10-10-|
E|----------------5-------5----5--8--8--|


Pre Chorus

E|--6----------------------|
B|--6----------------------|
G|--7--99999999-99-999999--|
D|--8--99999999-99-999999--|
A|--8--77777777-77-777777--|
E|--6----------------------|


Chorus

E|----|-------------------|-5-|
B|----|-------------------|-6-|
G|-7/-|-9--9-9-9-10-10-9--|-7-|
D|-x--|----x-x-x-x--x--x--|-7-|
A|-5/-|-7--7-7-7-8--8--7--|-5-|
E|----|-------------------|---|

Structure:

Intro/Verse x5

Pre Chorus x1

Chorus x2

Intro/Verse x3

Pre Chorus x1

Chorus x3

Pre Chorus x1

Nothings played by guitar over the bridge, maybe a bit of synth

Chorus x3

Pre Chorus x1

End On Dm 
Tap to rate this tab
 
# A B C D E F G H I J K L M N O P Q R S T U V W X Y Z