Song name
# A B C D E F G H I J K L M N O P Q R S T U V W X Y Z

The Myriad - Dont Let Them See You tab

Hi people, this is my tab for one of the greatest songs EVER! enjoy:

Intro/verse guitar 1

e|-------------------------------------------------------------------|
B|-------------------------------------------------------------------|
G|-------------------------------------------------------------------|
D|------------------------------repeated throughout song-------------|
A|--3/5-0~~-0-0-3/5-0~-/7/5------------------------------------------|
E|-------------------------------------------------------------------|

Intro/verse guitar 2

e|-------------------------------------------------------------------|
B|--(the x's are played by lifting the finger fretting the note)-----|
G|-------------------------------------------------------------------|
D|---7xx7x7----------------------------------------------------------|
A|-------------------------also repeated-----------------------------|
E|-------------------------------------------------------------------|

Chorus

Throughout chorus

e|--12-12-12-12-12-12-12/-10-10-10-10-10-10/-8-8-8-8-8-8/-7-7-7-7-7--|
B|-------------------------------------------------------------------|
G|-------------------------------------------------------------------| 
D|-------------------------------------------------------------------|
A|-------------------------------------------------------------------|
E|-------------------------------------------------------------------|

Verse 2

e|-------------------------------------------------------------------|
B|-------------------------------------------------------------------|
G|-------------------------------------------------------------------|
D|--7xx7x7---7xx7x7--------------------------------------------------|
A|---------0---------------------------------------------------------|
E|-------------------------------------------------------------------|

no 2nd guitar in 2nd verse

2nd chorus

Still studying solo

Acoustic after solo:

e|--x---xxxx-x--xxxx-----------------------------------------------|
B|--x---xxxx-x--xxxx-----------------------------------------------|
G|--7---7777-7--7777-----------------------------------------------|
D|--x---xxxx-x--xxxx-----------------------------------------------|
A|--5---5555-5--5555-----------------------------------------------|
E|--x---xxxx-x--xxxx-----------------------------------------------|

guitar 1 playing intro riff

Ending: NO CLUE!


sorry about the missing parts, but the solo is just weird. give
feedback!
Tap to rate this tab
# A B C D E F G H I J K L M N O P Q R S T U V W X Y Z